Volver a Cancionero



Un verano en Nueva York ,Acorde Guitarra, Letra Tabladura, Cancionero Tuna


.

Un verano en Nueva York

Tuna España , Tunas Universitarias, Tunas y estudiantinas, cancionero tuna, certamen Internacional  Costa Calida, buen tunar, musica tuna, Ronda La Tuna

Autor:

Interpretan: TunaEspaña, Gran Combo de Puerto Rico

TunaEspaña (Don Dudo) www.TunaEspaña.es

Ritmo:

.

Intro: Gm - Cm - D - Gm (x2)
e|---------3-----3.-2.---------------------------------------
B|-------3---4.----------4.-3.-------------------------------
G|-----3---------------5-------2-5.-3.------3-6-5-3-5.-3-----
D|-4-5------------------------------------5---------------5--
A|--------------------------------------5--------------------
E|-----------------------------------------------------------

e|---------3-----3.-2.-------------5---------------------|
B|-------3---4.--------4---------7---7-8-8----8-8-10-7-8-|
G|-----3---------------------5-8------------7------------|
D|-4-5---------------------7-----------------------------|
A|-------------------------------------------------------|
E|-------------------------------------------------------|

                   Gm  (G)
Si te quieres divertir
Cm                       Gm
    con encanto y con primor
Cm                     Gm
    sólo tienes que vivir
      D             Gm
un verano en Nueva York.

                  Cm
Te levantan de rodillas
F                  Bb
  tus amigos caprichosos
Cm                    Gm
   te llevan para las villas
D                     Gm
   o a la montaña del oso.
                      Cm
Luego a la gira de un barco
F                    Bb
   o a la Playa de Ochanbrillo,
Cm                    Gm
   la fiesta del Jamoncillo
D                   Gm
   o con la copa en un charco.

                   Gm  (G)
Si te quieres divertir
Cm                       Gm
    con encanto y con primor
Cm                     Gm
    sólo tienes que vivir
      D             Gm
un verano en Nueva York.

                 Cm
El 4 la independencia,
F                   Bb
   el desfile borinqueño,
Cm                      Gm
   todo esto parece un sueño
D                      Gm
   si lo gozan con prudencia.
                   Cm
Fiesta folclórica quieres
F                     Bb
   allá en el parque central.
Cm                    Gm
   Si ven que Manolo muere
D                       Gm
   ves la fiesta de San Juan.

                      D                     Gm
Justín Barreto me dijo, un verano en Nueva York.
                    D                       Gm
Ay! Allí se goza mejor, un verano en Nueva York.
                           D                        Gm
Te vas a la fiesta de San Juan, un verano en Nueva York.
                    D                       Gm
Un verano en Nueva York, un verano en Nueva York.
                 D                        Gm
A la montaña del oso, un verano en Nueva York.
                        D                       Gm
Oye! Te llevan a guarachar, un verano en Nueva York.
                    D                       Gm
Los amigos caprichosos, un verano en Nueva York.
                     D                       Gm
Que nunca quieren parar, un verano en Nueva York.
                    D                       Gm
Un verano en Nueva York, un verano en Nueva York.

   D                          Gm
(Riff 1), un verano en Nueva York.
   D                          Gm
(Riff 1), un verano en Nueva York.
   D                          Gm
(Riff 2), un verano en Nueva York.
   D                          Gm
(Riff 2), un verano en Nueva York.

Gm - D (x12)
(Oye no me eches la culpa a mi,
échale la culpa a Justin Barreto
que el que tiene esto encendío
ese es el señor que sabe.)

   D                          Gm
(Riff 1), un verano en Nueva York.
   D                          Gm
(Riff 1), un verano en Nueva York.
   D                          Gm
(Riff 2), un verano en Nueva York.
   D                          Gm
(Riff 2), un verano en Nueva York.

                                      D                             Gm
Nueva York, Nueva York, Nueva York, Nueva York, un verano en Nueva York.
                      D                       Gm
Oye, allí tú vas a gozar, un verano en Nueva York.
                 D                                 Gm
Viendo las mamis en hot paint, un verano en Nueva York.
                    D                        Gm
Un verano en Nueva York, un verano en Nueva York.
                         D                        Gm
Ay, la cosa se a puesto dura, un verano en Nueva York.
                  D                       Gm
Pero, se puede gozar, un verano en Nueva York.

Gm - Cm - D - Gm (x2)
e|---------3-----3.-2.---------------------------------------
B|-------3---4.----------4.-3.-------------------------------
G|-----3---------------5-------2-5.-3.------3-6-5-3-5.-3-----
D|-4-5------------------------------------5---------------5--
A|--------------------------------------5--------------------
E|-----------------------------------------------------------

e|---------3-----3.-2.-------------5---------------------|
B|-------3---4.--------4---------7---7-8-8----8-8-10-7-8-|
G|-----3---------------------5-8------------7------------|
D|-4-5---------------------7-----------------------------|
A|-------------------------------------------------------|
E|-------------------------------------------------------|

*NOTA*
(Otra forma de tocar los requintos, es hacer: Gm - F - D# - D
en ves de solo Gm - D.)
Así, todo lo que sea Gm - D, cambiaría.
Ejemplo:
    Gm        F    D#      D                        Gm
Te vas a la fiesta de San Juan, un verano en Nueva York.

 

Tags: , , , , , , , , , , ,

Comments are closed.

Volver a Cancionero