Volver a Cancionero



Bilongo,Acorde Guitarra, Letra Tabladura, Cancionero Tuna


.

Bilongo

Tuna España , Tunas Universitarias, Tunas y estudiantinas, cancionero tuna, certamen internacional Tuna Costa Calida, Don Dudo, Musica de Tuna, Buen Tunar,  Canciones de Tuna, Ronda La Tuna, Bilongo

Autor:

Interpretan: TunaEspaña, Ismael Rivera

TunaEspaña (Don Dudo) www.TunaEspaña.es

Ritmo:

[Tube]http://www.youtube.com/watch?v=Hq0OStEtRoo[/Tube]

.

Intro:
Em - A (x4)
C - G - C - B

     Em            A         Em        B
Yo estoy tan enamorao de la negra Tomasa
     C               B
que cuando se va de casa
      C        B  Em
qué triste me pongo.

    Em                              A
Enamorao, enamorao, enamorao, enamorao
                Em      B
yo estoy de la negra Tomasa
      C               B
que cuando se va de casa
           C        B  Em
pero qué triste me pongo.

 D   C   B
Ay, ay, ay.
                        B
Mira que esa negra linda, camara'
               Em   A
mira me dio bilongo.
           B
Esa negra santa camara'
          Em    D
me dio bilongo.

G                                   D    F  Am
Lo más que me gusta es la café que ella me cuela
    D
Lo más que me gusta es la comida que ella cocina.
G
Me gusta la café, me gusta la café
         D    F   Am
mira que ella me cuela,
    D                                        G
lo más que me gusta es la comida que ella cocina.

 D   C   B
Ay, ay, ay.
                        B
Mira que esa negra linda, camara'
               Em   A
mira me dio bilongo.
           B
Esa negra santa camara'
          Em     B
me dio bilongo.

Em - Am - B - Em

      Em     B                  Em
Kikiribu mandinga, kikiribu mandinga
                               Am             B              Em
kikiribu, kikiribu,kikiribu mandinga, esa negrita sí que es linda.

Kikiribu mandinga, kikiribu mandinga
                           Am
lo más que me gusta es la café
 B                    Em
como lo cuela Tomasa, ay ya tu ve.

Kikiribu mandinga, kikiribu mandinga
pero te digo pero si contiene dinga,
         Am                 B
tiene mandinga, la negra Tomasa
                 Em
te digo que es relinda con timba.

Kikiribu mandinga, kikiribu mandinga
                                         Am
kikiribu mandinga, mandinga, mandinga, mandinga
   B                   Em
mandinga, mira, no es gringa.

Kikiribu mandinga, kikiribu mandinga
                     Am
así es el fogón, me dice Tomasa
         B                Em
lo que quiero es que se prenda la brasa.

Em - Am - B - Em (x6)

Kikiribu mandinga, kikiribu mandinga
                            Am
kikikiribu, kikiribu, kikiribu, kikiribu
       B            Em
kikiribu mandin mandinga.

Kikiribu mandinga, kikiribu mandinga.

Ajá... Roberto Roena.
Con sabor a coco.

Em - Am - B - Em (x10)

Ven pa' que goces, ven pa' que goces
ven pa' que go, pa' que go, pa' que go,
pa' que go, pa' que go, pa' que go, pa' que goces.

Em - Am - B - Em (x8)

(Riff 1) kikiribu mandinga
(Riff 2) kikiribu mandinga
(Riff 3) kikiribu mandinga
(Riff 4) kikiribu mandinga
(Riff 5) kikiribu mandinga

                     Em
Te digo pero si contiene dinga,
          Am                 B
tiene mandinga, la negra Tomasa
              Em
mira te digo que la negra Tomasa
   Am                   B   Em
te digo que no es gringa.

      Em                   Am                  B
Kikiribu, kikiribu, kikiribu, kikiribu, kikiribu
               Em
kikiribu, kikiribu, mandin mandin
                  Am              B          Em
din din dinga, mandinga, mira, mira ya tu ve.
       Em                 Am          B    Em
Ya tu ve cómo me dice la negra Tomasa.

C - G - C - B - Em

RIFFS
-----

Riff 1
e|-7-7-7-7-7-----5-5-7-8-7-7-|
B|-----------7-7-------------|
G|---------------------------|
D|---------------------------|
A|---------------------------|
E|---------------------------|

Riff 2
e|-------------------7.-|
B|-----8.-7.-------7----|
G|-----------9-9-8------|
D|-8-9------------------|
A|----------------------|
E|----------------------|

Riff 3
e|-8-7-8-7-8-7-8-7-8-7-7--5-5-7-8-7---5-5-7-7-|
B|----------------------------------7---------|
G|--------------------------------------------|
D|--------------------------------------------|
A|--------------------------------------------|
E|--------------------------------------------|

Riff 4
e|----------------------------------------|
B|-10---8-7------------7-----7------------|
G|----9-----9.--8h9h10---9-8-----7.-------|
D|-----------------------------9----9-7-9-|
A|----------------------------------------|
E|----------------------------------------|

Riff 5
e|-------10..------------10..----|
B|-11-12------10------10------12-|
G|-----------------11------------|
D|-------------------------------|
A|-------------------------------|
E|-------------------------------|

 

Tags: , , , , , , , , , ,

Comments are closed.

Volver a Cancionero