Volver a Cancionero



La Mancornadora,Acorde Guitarra, Letra Tabladura, Cancionero Tuna, xx


.

La Mancornadora

Tuna España, ,bodegas Bollullos Del Condador,Cancionero Tuna, musica de tuna, Ronda La Tuna, Huelva, Cristobal Colon, Tuna Economica Huelva, Don Dudo

Autor: MANUEL ESQUIVEL

Interpretan: Antonio Aguilar, Trio Azteca, David Zaizar, Cuco Sanchez, Los Tres Ases, Juan Neri, Xavier Cugat

Ritmo:

Don Dudo (TunaEspaña)

 

 

Orquesta Xavier Cugat, xxxxxxxx

 

.

LA CANCION EMPIESA CON ESTE REQUINTO


      D                             D
e ----2---2----3--5--5--2--3--3--2--5
B ----3---3----5--7--7--3--5--5--3--7
                                      A7
e---2--2---5----10-10---9--9---7--5---9
B---3--3---7----12-12--10-10---8--7--10
                                    D               A7              D
e--5-5-----9-9------9--9--10-9--10--5--5-5--9--7--5--3--5--7--5--3--2
B------8--10-10-----10-10-12-10-12--7--7-7--10-8--7--5--7--8--7--5--3
G-------------------------------------------------------------------2
D-------------------------------------------------------------------0


  D
Ando ausente del bien que adoré
                      A7
Apasionado por una mujer
                         D
Sólo tomando disipo mis penas
                A7             D
Con las copas llenas para divagar.

D
Que si lo hiciste con mala intención
                             A7
O con el fin de hacerme padecer
                          D
Que no me miras rodeado flores
           A7                 D
Y nuevos amores me pueden querer.

DESPUES SE TOCA EL MISMO REQUINTO

      D                             D
e ----2---2----3--5--5--2--3--3--2--5
B ----3---3----5--7--7--3--5--5--3--7
                                       A7
E  ---2--2---5----10-10---9--9---7--5---9
B  ---3--3---7----12-12--10-10---8--7---10
                                     D                A7             D
e--5-5-----9-9------9--9--10-9--10---5--5-5--9--7--5--3--5--7--5--3--2
B------8--10-10-----10-10-12-10-12---7--7-7--10-8--7--5--7--8--7--5--3
G--------------------------------------------------------------------2
D--------------------------------------------------------------------0


D
Y si tú fueras legal con mi amor
                         A7
Tú gozarías de mi protección
                                D
Pero en el mundo tú fuiste traidora
            A7             D
La mancornadora de mi corazón.

 D
La despedida yo no se las doy
                            A7
La despedida será esta canción
                          D
La despedida yo se las dare
              A7                 D
Cuando yo me vaya de esta población.

                              





 

 

Tags: , , , , , , , , , , , , , , , , ,

Comments are closed.

Volver a Cancionero