Volver a Cancionero



Cumbia del mole,Acorde Guitarra, Letra Tabladura, Cancionero Tuna,


.

Cumbia del mole

TunaEspaña, Tuna España,  Don Dudo, Museo Pedro Cano Cancionero Tuna, Ronda, Musica de Tuna

Autor:

Interpretan: Lila Downs

Ritmo:

Don Dudo (TunaEspaña)

.

Em                   B7
Dicen Que En Guajaca Se Toma El Mezcal Con Cafe.
Dicen Que En Guajaca Se Toma El Mezcal Con Cafe.

   Am           D             Em
dicen Que La Hierba Le Cura La Mala Fe.
dicen Que La Hierba Le Cura La Mala Fe.

Am         Em            B7              Em
a Mi Me Gusta El Mole Que Soledad Me Va A Moler.
a Mi Me Gusta El Mole Que Soledad Me Va A Moler.

***TODO EL CORO CON Em & B7 ***

Em         B7
mi Querida Soledad,
me Va A Guisar Un Molito.
por El Cielo De Montealban,
de Noche Sueño Contigo.
MI Querida Soledad,
me Va A Guisar Un Molito.
por El Cielo De Montealban,
de Noche Sueño Contigo.

***SOLO DE ACORDEON Am Em B7 Em ***

se Muele Con Cacahuate
se Muele Tambien El Pan
se Muele La Almendra Seca
se Muele El Chile Y
tambien La Sal
se Muele Ese Chocolate
se Muele La Canela
se Muele Pimienta Y Clavo
se Muele La Molendera

cuentan Que En Oaxaca Con Agua Es El Cohoclate
cuentan Que En Oaxaca Con Agua Es El Chocolate
dicen Que En La Fiesta Toritos De Ha De Quemar
dicen Que En La Fiesta Toritos De Ha De Quemar
para El Que Haga Su Manda Por La Pasion De Soledad
para El Que Haga Su Manda Por La Pasion De Soledad.

MI Querida Soledad,
me Va A Guisar Un Molito.
por El Cielo De Montealban,
de Noche Sueño Contigo.
MI Querida Soledad,
me Va A Guisar Un Molito.
por El Cielo De Montealban,
de Noche Sueño Contigo.
Melodia que toca el acordeón y flauta.
Esta parte aparece en ocaciones donde Lila Downs para de cantar.



--15--14--12------12----|--12--11-----------------|
--------------15-----12-|----------13--12--10—-12-|
------------------------|-------------------------|
------------------------|-------------------------|
------------------------|-------------------------|
------------------------|-------------------------|


--15--14--12------12----|--12--11--12--14--11—-12-|
--------------15-----12-|-------------------------|
------------------------|-------------------------|
------------------------|-------------------------|
------------------------|-------------------------|
------------------------|-------------------------|


------------------------|
---12--10---------------|
-----------12--11--9----|
------------------------|
------------------------|
------------------------|

 

Tags: , , , , , , , , , ,

Comments are closed.

Volver a Cancionero