Volver a Cancionero



Naila,Acorde Guitarra, Letra Tabladura, Cancionero Tuna, xx


.

Naila

TunaEspaña, Tuna España, Sardinada Casa Campo, Cancionero Tuna, Don Dudo,Ronda La Tuna, certamen tuna, Don Chulin

Autor:

Interpretan: Lila Downs

Ritmo:

Don Dudo (TunaEspaña)

.

intro
(Bm-F#m-C#7-F#m-Bm-Bm-C#7-F#m)

                 F#m    C#7
En una noche de luna
                  F#m
Naila lloraba ante mi
                    C#7
Ella me hablaba con ternura
                     F#m
Puso en mis labios su dulzura
F#7              Bm
Yo le decia porque lloraba
D                   C#7
Y ella me contesto asi
Bm                    F#m
Ya me embriague con otro hombre
C#7                     F#m
Ya no soy Naila para ti
Bm                    F#m
Ya me embriague con otro hombre
C#7                   F#m   "F#m-Fm"
Ya no soy Naila para ti

E                A    (*)
Naila, di porque me abandonas
C#7                     F#m-F#7
Tonta, si bien sabes que te quiero
Bm
Vuelve a mi, ya no busques
F#m
Otros senderos
             C#7
Te perdono, porque sin tu amor
               F#m
Se me parte el corazón

intermedio

(F#m-C#7-F#m-F#7

 Bm-D-C#7-Bm-F#m

 C#7-F#m-F#7-Bm

 F#m-C#7-F#m)  "F#m-Fm"

E                A    (*)
Naila, di porque me abandonas
C#7                     F#m-F#7
Tonta, si bien sabes que te quiero
Bm
Vuelve a mi, ya no busques
F#m
Otros senderos
             C#7
Te perdono, porque sin tu amor
              F#m       Bm     F#m (**)    (F#m 2sus)
Se me parte el corazón


intro

E--------------2--5--4--2--------------------------|
B--3--0--2--3--------------2--------------------2--|
G-----------------------------4--4--4--1--2--4-----|
D--------------------------------------------------|
A--------------------------------------------------|
E--------------------------------------------------|


E--------------2--5--4--9--7--5--4--4--4--4--5--4--2--------"2"|
B-3--0--2--3------------------------------------------2---2----|
G-------------------------------------------------------2------|
D-----------------------------------------------------------(4)|
A--------------------------------------------------------------|
E--------------------------------------------------------------|


intermedio

E-------------------------------------------|
B--3--5--3--2-------------------------------|
G--------------2--1--------------------1--2-|
D--------------------4--3--3--3--3--4-------|
A-------------------------------------------|
E-------------------------------------------|
                                        "(rep)"
E----------------------------------------|
B----------------------------------------|
G-------------------------2--1-----------|
D-4-----------------4--3--------4--3--3--|
A----4--1--2--4--5-----------------------|
E----------------------------------------|

"(rep)"

Aqui se repite la introducción
con excepción de el (4) ahí se toca el "2"


(*)

E------------------|
B------------------|
G------------------|
D------------------|
A--0--0--2--3--4---|
E------------------|

(**)

E--------------------|
B--------------------|
G--------------------|
D--------------------|
A--5--4--2-----------|
E-----------5--4--2--|

(F#m 2sus)

E|------|---1--|------|---4--|------|
B|------|---1--|------|------|------|
G|------|---1--|------|------|------|
D|------|---1--|------|---3--|------|
A|------|---1--|------|---2--|------|
E|------|---1--|------|------|------|

TunaEspaña, Tuna España, Certamen Tuna, Cancionero tuna, Real Casino Murcia, Don Dudo, Don Santi, musica tuna, Imposicion Beca

 

Tags: , , , , , , , , , ,

Comments are closed.

Volver a Cancionero