Volver a Cancionero



Alas Quebradas,Requinto,Acorde Guitarra, Letra Tabladura, Cancionero Tuna, Bolero


Alas Quebradas

TunaEspaña, Tuna España, Cancionero Murcia, Canciones de tuna, Musica de Tuna, Don Mique

Autor: Gilberto Urquiza

Interpretan: Trio Los Reyes

Ritmo: Bolero

Don Dudo  (www.TunaEspaña.es)   (www.TunaEspana.com)


 
1)----3--                     5.-3
2)--------
 

  
1)---3--5.-3---------5...>7--5-0------------------------------
2)-----------5-3---3------------3---(3)---3-3-3--5.-5--3-----
3)---------------5---------------4---(4)------------------4--
4)-----------------------------------------------------------
5)-----------------------------------------------------------
6)-----------------------------------------------------------
 
1)---3--5.-3---------5...>7--5-0------------------------------
2)-----------5-3---3------------3---(3)---3-3-3--5.-5--3-----
3)---------------5---------------4---(4)------------------4--
4)-----------------------------------------------------------
5)-----------------------------------------------------------
6)-----------------------------------------------------------
  
En esta parte 
 1)-------------0-0------------------------0-0-----------------------0-0--------
2)---(3)---5.----------5---------(3)----5.--------5--------(3)---5.----------5-
3)-----(4)-------------------------(4)-----------------------(4)---------------
4)------------------6--------------------------6--------------------------6----
5)-----------------------------------------------------------------------------
6)-----------------------------------------------------------------------------
 
 
1)--0-0-0-0-0-0-2-4--5-5--4-5------
2)---------------------------5--3--
3)--------------------------------5
4)---------------------------------
5)---------------------------------
6)---------------------------------
 
 
Lam
                                                  
La7                Rem                         
NO voveras a mi yo lo presiento             
                                           
Sol M              Do               Mi      
todo tiene su fin pasando el tiempo         
                                            
Fa                        Mi   
Tu podras reir de mi tormento
 
                                           Lam 1)--0---0-------
y no seras feliz auque te encuentres otro amor   2)----3---3--1-1
                                               3)--------------
 
La7                Rem                                               
Yo seguire luchando con mi pena
 
Sol M                            Do      Mi
hasta arrancar de mi alma esta cadena
 
Fa                               Mi
Esa pasion que arrastra y me atormenta 
 
              Lam           Mi          Lam
A la Prision oscura de mis noches de dolor      1)--0---0-------
                                              2)----3---3--1-1
                                              3)--------------
  
 
Sol M                            Do      Mi      Bajo
Tu puedes ir sin mi por todas partes            4)------------------ 
                                              5)---3--2--0--------
                           Lam   La7
Gaviota de aristocratico plumaje 
 
Rem             Lam
Yo podre mirar en la distancia azul 
 
Mi                       Lam
Tus alas ya quebradas sobre el mar    1)--0---0-------
                                     2)----3---3--1-1
                                     3)--------------
 
 
Esta parte se repite dos veces
  
1)---3--5.-3---------5...>7--5-0------------------------------
2)-----------5-3---3------------3---(3)---3-3-3--5.-5--3-----
3)---------------5---------------4---(4)------------------4--
4)-----------------------------------------------------------
5)-----------------------------------------------------------
6)-----------------------------------------------------------
  
 
lo MISMO QUE LA DE ARRIBA SOLO VARIA EL SIGUIENTE TAPS
 
1)-------------0-0------------------------0-0----------
2)---(3)---5.----------5---------(3)----5.--------5----
3)-----(4)-------------------------(4)-----------------
4)------------------6--------------------------6-------
5)-----------------------------------------------------
6)-----------------------------------------------------
  
 
1)---------------------------------------------------------0-0--------------0--5--
2)---(3)---5.----5----------(3)-5.--------5------(3)---5.---------5--3---3--------
3)----(4)-------(4)----------(4)---------(4)------(4)------------------5----------
4)-------------------------------------------------------------6------------------
5)--------------------------------------------------------------------------------
6)--------------------------------------------------------------------------------
  
 
     /Aqui un repiqueo  
1)---0-0-0-0-0-0-0------12--0-0-0-0--7--0-0-0-0--4--0-0-0-0--3----
2)----------------------------------------------------------------
  
 
1)---0-0-0-0-0-0-0------12--0-0-0-0--7--0-0-0-0--4--0-0-0-0--3----
2)----------------------------------------------------------------
 
 
1)---0-0-0-0-0-0-0------12--0-0-0-0--7--0-0-0-0--4--0-0-0-0--3-----
2)-----------------------------------------------------------------
 
  
1)---0-0-0-0-0-0-0------12--0-0-0-0--7--0-0-0-0--5--
2)--------------------------------------------------
  
 
1)------------------------5-5-5-5---12--12--12--10-10-10---8-8-8-7-
2)----------2-2-2--5-5-5-------------------------------------------
3)--2--2--2--------------------------------------------------------
 
  
1)----------------2-2-2---7---12--12--12--10-10-10---8-8-8-7---
2)----------4-4-4----------------------------------------------
3)----4-4-4----------------------------------------------------
 
  
1)-0-0-0-2-3-4---0-0-0-2-3-4---0-0-0-3-4-5---0-0-0-3-4-5---0-0-0-5-6-7---0-0-0-5-6-7-
2)-----------------------------------------------------------------------------------
3)-----------------------------------------------------------------------------------
 
 
1)--8-8-8--7-7-7--5-5-5----
2)-------------------------
3)-------------------------
 
  
La7                Rem 
No voveras a mi con la mentira 
 
Sol M              Do               Mi  
por la que yo senti perder la vida 
 
Fa                        Mi   
hay tormentas negras en el alma,
 
            Lam           Mi          Lam
Donde muere el amor cuado le falta la verdad. 
  
 
1)-----5--------------
2)-----5--------------
3)-----5--------------
 

Tags: , , , , , , , , , , , ,

Comments are closed.

Volver a Cancionero