Volver a Cancionero



Jacarandosa,Acorde Guitarra,Requinto, Letra Tabladura, Cancionero Tuna, Bolero


 

.

Jacarandosa

TunaEspaña, Cancionero tuna. Musica Tuna, Cena navidad,13, dism, Cancionero tuna, Don Dudo, Fresita

Autor: Enrique Fabregat, Molina Montes

Interpretan: Los Tres Reyes

Ritmo: Bolero

Don Dudo (TunaEspaña)

.

 

Ritmo: Guaracha

PUNTEO: A-B7-E7-A (X2)

Para requinto, con cejilla en el segundo traste. Para guitarra
pasar a Mi Mayor

    A
mi mujer se llama María
                     E7
mi mujer tenía un dolor

y me dijo, chino, chinito
                     A
llévame a ver al doctor

     A
mi mujer se llama María
                     E7
mi mujer tenia un dolor

y me dijo, chino, chinito
                     A
llévame a ver al doctor

    C#7          F#m7
enseguida fui corriendo
   C#7             F#m7
a ver a un especialista
B7
para que a mi mujer
                  E7
la curara a toda prisa

A
ella entro en el consultorio
   B7             E7
y yo afuera me quede

PAUSA Y CONTAMOS:

la una... las dos... las tres...
       42    40 50 A A6 A9(5+)
y mi mujer no salia

C#7        F#m
entonces pensé
          C#7      F#m
que algo grave pasaría
  B7
y cuando llamé al doctor

pa' preguntarle del caso
         E7
me dijo así:

PUNTEO Y ACOMPAÑADO CON UN RASGUEO EN E7

 A
no se asuste mi compay

B7                 E7
que no es grave la cosa
                     A
su mujer esta jacarandosa
   D         E7    D      A
y mira como baila, jacarandosa
   D         E7    D      A
y mira como canta, jacarandosa
   D         E7   D      A
y mira como goza, jacarandosa

PUNTEO(ACOMPAÑADO POR D-E7-D-A IGUAL QUE ANTERIORMENTE)
E INTRODUCCIÓN

A
ella entro en el consultorio
   B7             E7
y yo afuera me quede

PAUSA Y CONTAMOS:

la una... las dos... las tres...nueve meses
       42    40 50 A A6 A9(5+)
y mi mujer no salia

C#7        F#m
entonces pensé
          C#7      F#m
que algo grave pasaria
  B7
y cuando llame al doctor

pa' preguntarle del caso
         E7
me dijo asi:

PUNTEO Y ACOMPAÑADO CON UN RASGUEO EN E7

 A
no se asuste mi compay

B7                 E7
que no es grave la cosa
                     A
su mujer esta jacarandosa
    D         E7    D      A
y mira como baila, jacarandosa
    D         E7    D      A
y mira como canta, jacarandosa
    D         E7   D      A
y mira como goza, jacarandosa
    D         E7     D      A
y mira que sabrosa, jacarandosa
TunaEspaña, Cancionero tuna. Musica Tuna, Cena navidad,11, dism, cancionero tuna, musica de tuna, don Dudo
Afinación :Requinto con capo en el Segundo Traste B E A D F# B

Introducción
|0---2-4-5-5-5---5-5-|5---5-5-5-5-5-4-5-6-7-|7---7-7-7-7-7-7-7-5-7-|
|--------2-2-2---2-2-|2---2-2-2-2-2-1-2-3-4-|4---4-4-4-4-4-4-4-2-4-|
|--------------------|----------------------|----------------------|
|--------------------|----------------------|----------------------|
|--------------------|----------------------|----------------------|
|--------------------|----------------------|----------------------|

|5-4-4-4-4-4-4-4-|4-4-0-2-4-5-5-2-5/|0-2-4-----5---|--5-----5-----5-0-0-2p|
|2-5-5-5-5-5-5-5-|5-5-------2-2-3-2/|------1-2---1-|2---1-2---1-2---------|
|----------------|------------------|--------------|----------------------|
|----------------|------------------|--------------|----------------------|
|----------------|------------------|--------------|----------------------|
|----------------|------------------|--------------|----------------------|

|0-----7-----7-----7-|----7-------------0---|--0-----0-----0-0-2-4-|
|--4-5---4-5---4-5---|4-5---0-0-2p0---------|----------------------|
|--------------------|--------------0-1---0-|1---0-1---0-1---------|
|--------------------|----------------------|----------------------|
|--------------------|----------------------|----------------------|
|--------------------|----------------------|----------------------|

|--5-4-2-0-----------|2---|||||||||||||
|----------3-2-0-----|2---|||||||||||||
|----------------1-2-|2---|||||||||||||
|--------------------|2---|||||||||||||
|--------------------|----|||||||||||||
|--------------------|----|||||||||||||

 

 

Esta tablatura es el intermedio de
De la canción 
Se toca con requinto y capo 2do traste
La afinación seria B F# D A E B

 B:-0-0-0-0-0-0-2-1-2-3-2-3-4-3-4-5-4-5-6-5-6-7-
F#:---------------------------------------------
 D:---------------------------------------------

 B:-6-7-8-7-8-9-8-9-10-9-10-11-10-11-12-12-12-12-12-12
F#:---------------------------------------------------
 D:---------------------------------------------------

 B:-0-0-0-12-0-0-14-0-0-12-0-0-10-0-0-9-0-0-12-0-0-10-0-0
F#:------------------------------------------------------
 D:------------------------------------------------------

 B:-9-0-0-7-0-0-5-0-0-4-0-0-2-0-0-5-0-0-4-0-0-7-0-0-5-0-0
F#:------------------------------------------------------
 D:------------------------------------------------------

 B:-9-0-0-7-0-0-10-0-0-9-12-12-12-12-12-12-12-12
F#:---------------------------------------------
 D:---------------------------------------------

 B:-12-12-12-12-13-13-13-14-14-14-15-15-15-16-16-16-17-17
F#:------------------------------------------------------
 D:------------------------------------------------------

 B:-17-18-18-18-19-19-19-20-20-20-21-21-21-22-22-22-23-23
F#:------------------------------------------------------
 D:------------------------------------------------------

 B:-23-23-24-24-24-24-24-24-
F#:-------------------------
 D:-------------------------

 B:-------24-------24-------24-------24-----------
F#:-----------------------------------------------
 D:-----------------------------------------------
 A:-----------------------------------------------
 E:-18-18----18-18----18-18----18-18--------------

 B:-------24-------24-------24-------24-----------
F#:-----------------------------------------------
 D:-----------------------------------------------
 A:-----------------------------------------------
 E:-18-18----18-18----18-18----18-18--------------

 B:-24-24-24-23-23-22-22-21-20-19-18-17-16-15-14-13-12
F#:-----------------------------------------------
 D:-24-24-24-23-23-22-22-21-20-19-18-17-16-15-14-13-12
 A:-----------------------------------------------
 E:-22-22-22-21-21-20-20-19-18-17-16-15-14-13-12-11-10

 B:-12-12-12--12
F#:-------------
 D:-12-12-12--12
 A:-------------
 E:-10-10-10--10

Después de esto vuelve otra vez 
TunaEspaña, Cancionero tuna. Musica Tuna, Cena navidad, 03, dism, don dudo

Tags: , , , , , , , , , , , , ,

Comments are closed.

Volver a Cancionero