Volver a Cancionero



Alguém Me Disse,Acorde Guitarra, Letra Tabladura, Cancionero Tuna, Brasil


.

Alguém Me Disse

TunaEspaña, Tunas Españolas, Tunas Universitarias, Universidad, Don Dudo Insignia de Oro, dism, tuna universitaria

Autor:

Interpretan: Anisio Silva

Ritmo:

Don Dudo (TunaEspaña)

.


           Am                                                             
 Alguém me disse
        Dm         Am    F E7                                   
 Que tu andas novamente
          Am         Dm                                        
 De novo amor, nova paixão
          Am   A7                                               
 Toda contente
         Dm         G7                                         
 Conheço bem tuas promessas
          C           Am                                            
 Outras ouvi iguais a essas
             F      B5-/7                                          
 E esse teu jeito de enganar
     E7                                                        
 Conheço bem

             Am                                                
 Pouco me importa
         Dm           Am  E7                                     
 Que te vejam tantas vezes
           Am        Dm                                        
 E que tu mudes de paixão
           Am  A7                                             
 Todos os meses
          Dm                 E/G#                                  
 Se vais beijar, como eu bem sei
           C             Am                                     
 Fazer sonhar, como eu sonhei
              F                                                  
 Mas sem ter nunca
         E7  B5-/7 E7              Am                                
 Amor igual           ao que eu te dei


                                F F F E7                                  
E|-----------------------------1-1-1-0---------------------------------------|
B|-------1-0-------------------1-1-1-3------1-0------------------------------|
G|-----2-----2-----0-----------2-2-2-1----2-----2------0---2-0---------0-2-2-|
D|---2---------2-----3-2-0-3-2-3-3-3-2--2---------2------3-----3-2-2-3-------|
A|---------------3-----------------------------------3-----------------------|
E|---------------------------------------------------------------------------|


                                                E7
E|---------------------------------------------0--------0--|
B|---0---------0-1-1-1-0---1-1-0---1-1-1-0---0-3----1-0-1--|
G|-----2-1-1-2-----------2-------2---------2---1--------2--|
D|---------------------------------------------2--2-----2--|
A|------------------------------------------------------0--|
E|---------------------------------------------------------|

02 TunaEspaña, Tunas Españolas, Tunas Universitarias, Universidad, Don Dudo Insignia de Oro, Don Perdi, tuna universitaria

Tags: , , , , , , , , , , ,

Comments are closed.

Volver a Cancionero