Volver a Cancionero



Vagabundo,Requinto Los Tres Reyes,Acorde Guitarra, Letra Tabladura, Cancionero Tuna, Bolero


 

Vagabundo

TunaEspaña, Tuna España, Don Dudo, Certamen Internacional Tuna, 5, dism, Cancionero tuna

.

Autor: Victor Simón / Alfredo Gil

Interpretan: Los Panchos, Los Tres Reyes

Ritmo: Bolero

Don Dudo (TunaEspaña)


Guitarra

      Dm      D7        Gm 
Que importa saber quien soy, 
            Dm           A7    Dm 
ni de donde vengo ni por donde voy. 
           D7                   Gm           C 
Lo que yo quiero son tus lindos ojos, morena, 
                F 
tan llenos de amor. 
 

   Gm                   A7 
El Sol brilla en lo infinito, 
     Gm                A7 
y el mundo es tan pequeñito. 
      Gm                Dm 
Que importa saber quien soy, 
            A7                 Dm 
ni de donde vengo ni por donde voy, 
           Gm               C       F 
lo que yo quiero es que me des tu amor, 
       Bb7   Gm          A7   Dm 
que me da la vida que me da calor. 
 

          Gm                 A7 
Tú me desprecias por ser vagabundo, 
        Dm      A7     Dm 
y mi destino es vivir a. 
                           C 
Si vagabundo es el propio mundo, 
         Bb7                A7 
que va girando en un cielo azul. 
 

  Gm                     Dm 
Que importa saber quien soy, 
            A7                 Dm  D7 
ni de donde vengo ni por donde voy. 
           Gm                      Dm 
Lo que yo quiero es que me des tu amor, 
             A7                Dm / Re 7 
que me da la vida, que me da calor.

      Gm       C         F 
Que importa saber quien soy, 
Bb7         Gm           A7    Dm 
ni de donde vengo ni por donde voy. 
  
 

INTRODUCCIÓN: Gm, C7, F, Dm, Gm, A7, Dm, D7, Gm, A7, Dm, Bb7, Bbd, A7, Dm 
 

CIFRADOS

|-0-1-3-5-5-1-1------5-5-3-3-0-0------3-3-1-1----------1-1-0--------0-1-1-----------1-1-- 
|---------------3-3--------------1-1----------3-3-0-0-----------1-3--------3-3-0-0------- 
|---------------------------------------------------------------------------------------- 
| 
| 
|-----0-1-1----------1-1-0-0----------0-0------------------------------------------------ 
|-1-3-------3-3-0-0----------1-1----------3-3-0-0-----3-3-1------0-1-3-3-0-0------3-3---- 
|--------------------------------3-3--------------2-2----------3-------------2-2--------- 
  
 

|-0-0------------0-0----------------------- 
|-----1-1------------3-3-0-0-------3-3-1--- 
|---------3-3-----------------2-2---------- 
| 
| 
|----------------------------------------- 
|-1-1------------1-1-0-0----------0-0----- 
|-----3-3----------------2-2----------3--- 
|---------3-3----------------3-3---------- 
  
 

  Que_importa saber quién soy, ni de dónde vengo ni por donde voy. Lo que yo quiero son 
|----0---5--0--0----------------1--1--1--1--0--0--0--0-------------------------------0--- 
|----------------1---------3-----------------------------3--3--1----1---1--0------------- 
|---------------------3--------------------------------------------------------3--3------ 
  
 

  tus lindos ojos, morena, tan llenos de_amor. El sol brilla_en lo_infinito y_el mundo_es 
|--0---3--3--1-1----0-------------------1--0---0---5----5---5-----5---7-4-0--0----5---5-- 
|---------------------3-1---0------------------------------------------------------------ 
|--------------------------------3-1----------------------------------------------------- 
  
 

  tan pequeñito, que_importa saber quien soy, ni de donde vengo ni por donde voy, lo que 
|--5---5--7-4-0-----0----------------0-------------------------------------1--0----0---0- 
|-----------------------3--0--1-3---------1-------0--1--3--0--0---------0---------------- 
|----------------------------------------------3-----------------2--3-------------------- 
  
 

  yo quiero_es que me des tu_amor que me da la vida que me da calor. 
|--0------------------------------------------------------------------- 
|------3---3-----0--1--3----0--1-------0--1-----0-0---------0---------- 
|-----------------------------------3--------3--------2--3-----2-3----- 
  
 

  Tú me desprecias por ser vagabundo, y mi destino_es vivir así, si vagabundo_es el 
|--0--0--0---1-1----1-----------------1--1--1--0--0----0----------0--0-0-5---5---5------- 
|-----------------------3---3-3-0--0---------------------3--3-1-------------------------- 
|---------------------------------------------------------------------------------------- 
  
 

  propio mundo que va girando_en un cielo_azul. Que_importa saber quien soy, ni de donde 
|---7-5---3--3---3--5--3-1---1---5---3---1--0------0----------------0-------------------- 
|------------------------------------------------------3--0--1-3---------1-------0--1--3- 
|-----------------------------------------------------------------------------3---------- 
  
 

  vengo ni por donde voy. Lo que yo quiero_es que me des tu_amor que me da la vida que 
|------------------1--0----0---0--0------------------------0----------------------------- 
|--0--0---------0---------------------3---3-----0--1--3-------1-------0--1-----0-0------- 
|--------2--3------------------------------------------------------3--------3--------2--- 
  
 

  me da calor. Que_importa saber quien soy, ni de donde vengo ni por donde voy. 
|-----------------0----------------0---------0--0--0--0--0--0--0--0---0--0--5----- 
|-----0---------------3--0--1-3---------1----------------------------------------- 
|--3-----2-3----------------------------------------------------------------------

 
Req.(La-).

 |___________Re-____________|___________La-___________|_____________Mi7________|_La-__|_La7_|

e|--1-----------------1-----0----------0----5---5-----4----4----0-----1----1-----0----[-*5-]--|-----Se----------
B|--3-----3-----------3-----1-----1----1----6---6-----5----5----0-----3----3-----1----[-*2-]--|---repite--------
G|--------2-----2-----------------2-----------------------------------------------------------|--hasta antes----
D|--------------3-----------------------------------------------------------------------------|-----de[*]-------

*= Se toca 6 veces rápidas.

En ves de [*] en la repetición se toca:

 |___La-___|

e|---------|
B|--1------|
G|--2--2---|
D|-----2---|

Req.Intermedio.

 |____Sol7____|___Do+____|____Sol7____|____Do+_____|____Sol7____|___Do+____|__Si7__|_______Mi7__________|___La-____|_Mi7

e|-------------------------------------------------|-------------------------------------------------------------------
B|------------------------------------1---------1--|-------------------------------------------------------------------
G|------------------0-0--2--4,--0--2-------0--2----|------------------0-0---------------------1-1--------2-2--------4-4
D|------0--3--2---2----------------------2---------|------0--3--2---2-----4-1--------2,-2-3-2------2-3-2-----2-3-2-----
A|----2---------3----------------------------------|----2---------3------------2-3-2-----------------------------------
E|--3,---------------------------------------------|--3,---------------------------------------------------------------

 ________|____LA-___|(La-)              (LA-)                 |___RE-_____|__LA-___|__MI7__|__LA-___
                       
e|------------------|-----------------------------------------|-------------------------------------
B|--------1-1,-1-1--|-----------------------------------------|-------------------------------------
G|------------------|--2---0-------------2-2---0--------------|---------0---------------------------
D|--2-3-2-----------|----2---0--3---2--------2---0--3---2-----|--0,-2-3------0-2-3-----0-2---0-2----
A|------------------|-------------3---2,--------------3---2,--|------------3-------2-3-----3--------
E|------------------|-----------------------------------------|-------------------------------------

 ___|____Re-____|_______La-____|__Mi7__|____La-______|__Mi7________

e|---------------------------------------------|T----0,-12,--[Ver explicación #1 y #2]--------|
B|---------------------------------------------|----------------------------------------------|
G|-------------------------0-------0-----------|----------------------------------------------|
D|--7-7-7=>3-3-3,-7-7-7=>2---3-2-----3-2-------|----------------------------------------------|
A|-------------------------------2-------3-2-0-|----------------------------------------------|
E|---------------------------------------------|----------------------------------------------|

=> Deslisar el dedo desde esta posición a la siguinte.
T= Trémolo. 

Explicación #1.- En la canción original, las siguintes notas que se escuchan por fuera de de los trastes, osea, 
por delante de la 'boca' antes del puente, por lo que estos toque los tienes que buscar conforme al sonido que 
dan. Para obtener estos sonidos te recomiendo que undas la cuerda un poco con la punta y la uña de tu dedo índice 
para que no se escuche muy apagado el sonido. 

Explicación #2.- Si la vas a tocar en la guitarra al aire y no en requinto, una alternativa es que quedarian de 
la siguiente forma en lugar de la del requinto original:


e|T-----0,-7, NT--7-7-7,5-5-5,3-3-3,1-1-1--------------------|-----Se---------------------
B|----------------------------------------5-5-5,4=>5(7 VECES)|---repite-------------------
G|-----------------------------------------------------------|-el-requinto----------------
D|T--2,------------------------------------------------------|del principio de la canción-

NT= Sin trémolo.


Requinto
E----------------------------------------------------------
A----------------------------------------------------------
D-------------------------------3-3-------------2-2-------3
G-2-3-------3-3-0-0---------2-2---------3-3-0-0-----3-3-2--
B-----1-3-3---------3-3-1-1---------1-1--------------------
e----------------------------------------------------------

--------------------------------------------------------
----------------------------------------------4-4-------
-------------2-2----------3-3-0-0---------2-2---------3-
-0-2-3-3-0-0-----3-3-2-2----------2-2-0-0---------0-0---
--------------------------------------------------------
--------------------------------------------------------
       Dm                Gm
Que importa saber quien soy
              A7
ni de donde vengo
              Dm
ni por donde voy,
            D7
lo que yo quiero
                Gm        C7
son tus lindos ojos morena
                F
tan llenos de amor.

    A#                   A7
El sol brilla en lo infinito
        A#           A7
y el mundo tan pequeñito,
       Gm                Dm
que importa saber quien soy
              A7
ni de donde vengo
               Dm
ni por donde voy.

              Gm                  A7
//*Tu me desprecias por ser vagabundo
         Dm       A7   Dm
y mi destino es vivir así,
                           C7
si vagabundo es el propio mundo
          A#                A7
que va girando en un cielo azul.

       Gm                Dm
Que importa saber quien soy,
             A7
ni de donde vengo
              Dm
ni por donde voy,
        Gm                 Dm
solo quiero que me des tu amor
              A7
que me da la dicha,
            Dm
que me de calor.

              Gm                  A7
//*Tu me desprecias por ser vagabundo
         Dm       A7   Dm
y mi destino es vivir así,
                           C7
si vagabundo es el propio mundo
          A#                A7
que va girando en un cielo azul.
 

Tags: , , , , , , , , , , , , ,

Comments are closed.

Volver a Cancionero