Volver a Cancionero



Decidete,Acorde Guitarra, Requinto, Letra Tabladura, Cancionero Tuna, Bolero


.

Decidete

Tuna España, Tuna Economicas de Murcia, Don Dudo, 001, dism, cancionero tuna

Autor: Ramón Inclán

Interpretan: Los Tres Reyes

Ritmo: Bolero

Don Dudo (TunaEspaña)

.

            D
En tus manos esta

Nuestra dicha y dolor 
Ddim        Em   A7   
Amorcito del alma

Nadie mas solo tu

Es quien puede decir 
          D    Em A7
La ultima palabra

   D          B7 
Decídete, decídete
   Em
Decídete
             A7  
A decir si o no
    G           F#7 
A entregarme tu amor
               Bm   D7
O a llenarme de pena

               G
El infierno es mejor
             Gm
A esta cruel situación
          B7    C B7
De incertidumbre
               Em
De una vez por favor
                      A7
Sea por bien o sea por mal
   D          B7
Decídete, decídete
   Em     G A7 D
Decídete

  Ddim 
1:4
2:3
3:4
4:3
5:X
6:X
REQUINTO
En La Mayor  Requinto (5 medios tonos arriba)


__      
  \                                       
   1|----0---4/5--------------4-2----------4/5---
 ) 2|------------2--------2-5-----5-2----------2-
   3|-------------------2--------------4-2-------
   4|----2----------2-4--------------------------
 ) 5|--------------------------------------------
   6|----0---------------------------------------
__/

      
  \                                       
   1|-----------------4-2----------4/5--------
 ) 2|-------------2-5-----5-2----------3------
   3|-----------2--------------4-2------------
   4|------2-4--------------------------------
 ) 5|-----------------------------------------
   6|-----------------------------------------
__

 
          
  \                                       
   1|----------2--------2--5/9--7-9-7--7-9-7---
 ) 2|----2-3-2---2-3-2-------------------------
   3|------------------------------------------
   4|------------------------------------------
 ) 5|------------------------------------------
   6|------------------------------------------
__/
 

  \                                       
   1|-----7-7-7-9-10-12-9--------------------
 ) 2|---------------------12-10-9--7-9-7-6-7-
   3|---------------------------------------- 
   4|----------------------------------------
 ) 5|----------------------------------------
   6|----------------------------------------
__/


Esta parte se hace a dos requintos (al mismo tiempo)
este es el primero:

__      
  \                                       
   1|-----7-9-7--------7-9-7--------7-9-7-9--------
 ) 2|------------7---7--------7---7----------------
   3|--------------8------------8--------------------
   4|----------------------------------------------
 ) 5|----------------------------------------------
   6|----------------------------------------------
__/


__      
  \                                       
   1|-----6-8-6---------6-8-6--------6-8-6-8-------
 ) 2|------------6---6---------6---6---------------
   3|--------------7-------------7-----------------
   4|----------------------------------------------
 ) 5|----------------------------------------------
   6|----------------------------------------------
__/


__      
  \                                       
   1|-----5-----5-4-------4-----2------------------
 ) 2|-------5-------5---5---5---2------------------
   3|---------6-------6---------2------------------
   4|---------------------------2------------------
 ) 5|----------------------------------------------
   6|----------------------------------------------
__/

2do requinto

__      
  \                                       
   1|-----2-4-2-----------2-4-2-------2-4-2-4------
 ) 2|--------------4---4--------4---4--------------
   3|----------------4------------4----------------
   4|----------------------------------------------
 ) 5|----------------------------------------------
   6|----------------------------------------------
__/


 __      
  \                                       
   1|-----1-3-1-----------1-3-1-------1-3-1-3------
 ) 2|--------------3---3--------3---3--------------
   3|----------------3------------3----------------
   4|----------------------------------------------
 ) 5|----------------------------------------------
   6|----------------------------------------------
__/


__      
  \                                       
   1|----0-----2-0---------------------------------
 ) 2|------2-------2-2-2-2-2-----------------------
   3|--------2-------------------------------------
   4|----------------------------------------------
 ) 5|----------------------------------------------
   6|----------------------------------------------
__/
 

Tuna España, Tuna Economicas de Murcia, Don Dudo, 07, Cancionero Tuna

 

Tags: , , , , , , , , , , , ,

Comments are closed.

Volver a Cancionero