Volver a Cancionero



Triangulo,Acorde Guitarra, Letra Tabladura, Cancionero Tuna, Bolero


.

Triángulo

TunaEspaña, Tuna España, Tuna Derecho Almeria, Don Dudo,4. Ronda La Tuna, dism

Autor: Bobby Capo

Interpretan: Los Tres Reyes

Ritmo: Bolero

Don Dudo (TunaEspaña)

.

Intro
 D
E---------
A---------
D-7-----7-
G--7---7--
B---7-7---
E----5---- X3

   D              Bm           G        A       B       E     A    D
E-------------------------------------------------------------------
A-------------------------------------------------------------------
D-------------------------------------------------------------------
G-11-12--------------------------------------------------(12)--12-11
B------10---------------------------------12-10-9------------10-----
E--------10-12-14-12-14-15-14-15-17-14-12---------12-10-9-----------
   G      Abdim          F#m                     Em
E----------------------------------------------------------------
A----------------------------------------------------------------
D----------------------------------------------------------------
G--------12-11-10------------------------------------------------
B---13-12-----------12-10-9-10-9-10-9-10-9-10-12-----------------
E-10--------------9------------------------------9-12-17-15-14-12



     D          Bm              D7            G
Estoy, en medio, de un triangulo, sin solución,
       E           A
ni siquiera, justificación
       Bm             G#dim           F#m        G           E  A,G,F#m,Em
Me enamore cuando la vi por primera vez, sabiéndola, un imposible
    D         Bm         D        D7
También, en medio, de un triangulo,
       G             E               A
ella quedo por que igual que yo se estremeció
      Bm          G#dim            F#m   G                  A
Comprometió su corazón y nunca pensó, que perteneciendo a otro
 G                 A    G            A
Poner sus ojos en mi, eso haría de nosotros
G                 A      G       F#m Em         D      Riff 1
Culpables de convertir nuestro querer, en un triangulo,
Bm           G          A
Triangulo, triangulo, nuestro querer
ACORDES DEL REQUINTO: D, Bm, G, A El ritmo es facil

E-------------------------------------------------------------
A-------------------------------------------------------------
D-------------------------------------------------------------
G-------------------------------------------------------------
B------------12--12--------------12--12-----------------------
E--(14)-12-10--10--10-12-14-12-10--10--10-12-14-(12)-10-14-(12) X2



D         Bm        D       D7
Estoy en medio de un triangulo,
        G          E        A
sin solución, ni siquiera justificación
 Bm                 G#dim            F#m    G       E       (A)
Me enamore, cuando la vi por primera vez, sabiéndola un imposible
D           Bm        D        D7
También en medio de un triangulo,
     G             E               A         Cambio de ritmo
ella quedo, por que igual que yo se estremeció
         Bm         G#dim          F#m  G                A
Comprometió su corazón y nunca pensó, que perteneciendo a otro,
 G               A    G              A
Poner sus ojos en mi, eso haría de nosotros
G             A        G       F#m  Em       D       Riff 1
Culpables de convertir nuestro querer, en un triangulo,
 Bm          G       A             Riff 1
Triangulo, triangulo, nuestro querer,
D          Bm         G             A
Triangulo, triangulo, nuestro querer.

FINAL
E------------
A------------
D------------
G-14---14----
B----------15
E---17---14--

Riff 1
G---------------------------------
B----------------------8--10-10-10
E-14-12-10-10-9-7-7-7-7-7---------

 

 

Tags: , , , , , , , , , , ,

Comments are closed.

Volver a Cancionero