Volver a Cancionero



Asi Si Si,Acorde Guitarra, Letra Tabladura, Cancionero Tuna,musica llanera


Así Sí  Sí

TunaEspaña, Tuna España, Tuna Universitaria, Cancionero Tuna, Juntamento, Musica tuna , 17,dism, musica de tuna

Autor:Luis Ariel rey

Interpretan:

Ritmo:Joropo

Don Dudo (TunaEspaña)

.

Este punteo precede cada dos estrofas de la canción:

     C        G7                C
e|-0-1-3-3-3-3-8--7----0-1-1-1-1-3-5-7-8--|
B|-1-3-5-5-5-5-10-8--3-1-3-3-3-3-5-6-8-10-|
G|-------------------4--------------------|     X 2
D|----------------------------------------|
A|----------------------------------------|
E|----------------------------------------|

C7    F                  C               G7           C
e|-8--7-5-5s8--8--8--8--7-5-5-3-3-3s7-7-7-7-5-3-3-1-1-5-5-5-3-1-0-3-3-|
B|-10-8-6-6s10-10-10-10-8-6-6-5-5-5s8-8-8-8-6-5-5-3-3-6-6-6-5-3-1-5-5-|
G|--------------------------------------------------------------------|
D|--------------------------------------------------------------------|
A|--------------------------------------------------------------------|
E|--------------------------------------------------------------------|

También dos veces se repite el anterior punteo correspondiente a la
 revuelta de la canción


C                     Dm7     G7
Ay, si, si, yo no soy de por aquí,
                              C
ay, si, si, yo vengo del Casanare. (Bis)
C7      F                    C
Ay, si, si, como la palma de coco
                   G7
como la palma de coco
                    C
como la palma' e cumare. (Bis)


C                     Dm7     G7
Ay, si, si, esta noche canto aquí,
                              C
ay, si, si, mañana' onde cantare. (Bis)
C7      F                      C
Ay, si, si, en las sabanas de Arauca,
                   G7
en las sabanas de Arauca
                    C
o en el pueblo de Orocue. (Bis)


     C        G7                C
e|-0-1-3-3-3-3-8--7----0-1-1-1-1-3-5-7-8--|
B|-1-3-5-5-5-5-10-8--3-1-3-3-3-3-5-6-8-10-|
G|-------------------4--------------------|     X 2
D|----------------------------------------|
A|----------------------------------------|
E|----------------------------------------|

C7    F                  C               G7           C
e|-8--7-5-5s8--8--8--8--7-5-5-3-3-3s7-7-7-7-5-3-3-1-1-5-5-5-3-1-0-3-3-|
B|-10-8-6-6s10-10-10-10-8-6-6-5-5-5s8-8-8-8-6-5-5-3-3-6-6-6-5-3-1-5-5-|
G|--------------------------------------------------------------------|
D|--------------------------------------------------------------------|
A|--------------------------------------------------------------------|
E|--------------------------------------------------------------------|


C                     Dm7     G7
Ay, si, si, el orgullo del llanero,
                              C
ay, si, si, yo se lo voy a contar,
C7      F                        C
ay, si, si, buen caballo y buena silla,
                      G7
buen caballo y buena silla
                   C
buena soga pa' enlazar. (Bis)


C                     Dm7     G7
Ay, si, si, lucero de la mañana,
                             C
ay, si, si, préstame tu claridad,
C7      F                     C
ay, si, si, para seguirle los pasos
                    G7
para seguirle los pasos
                   C
a mi amada, que se va. (Bis)


     C        G7                C
e|-0-1-3-3-3-3-8--7----0-1-1-1-1-3-5-7-8--|
B|-1-3-5-5-5-5-10-8--3-1-3-3-3-3-5-6-8-10-|
G|-------------------4--------------------|     X 2
D|----------------------------------------|
A|----------------------------------------|
E|----------------------------------------|

C7    F                  C               G7           C
e|-8--7-5-5s8--8--8--8--7-5-5-3-3-3s7-7-7-7-5-3-3-1-1-5-5-5-3-1-0-3-3-|
B|-10-8-6-6s10-10-10-10-8-6-6-5-5-5s8-8-8-8-6-5-5-3-3-6-6-6-5-3-1-5-5-|
G|--------------------------------------------------------------------|
D|--------------------------------------------------------------------|
A|--------------------------------------------------------------------|
E|--------------------------------------------------------------------|



C                     Dm7     G7
Ay, si, si, a las tres de la mañana,
                              C
ay, si, si, a todos les madrugue. (Bis)
C7      F                      C
Ay, si, si, tenía yo que regresarme,
                   G7
tenía yo que regresarme
                   C
y en mi caballo monté. (Bis)


C7    F                  C               G7           C
e|-8--7-5-5s8--8--8--8--7-5-5-3-3-3s7-7-7-7-5-3-3-1-1-5-5-5-3-1-0-3-3-|
B|-10-8-6-6s10-10-10-10-8-6-6-5-5-5s8-8-8-8-6-5-5-3-3-6-6-6-5-3-1-5-5-|
G|--------------------------------------------------------------------|
D|--------------------------------------------------------------------|
A|--------------------------------------------------------------------|
E|--------------------------------------------------------------------|

         F          G7    C
e|-0-1-3-5-5--5-5-5-3-1-1-0-|
B|-1-3-5-6-6--6-6-6-5-3-3-1-|
G|--------------------------|
D|--------------------------|
A|--------------------------|
E|--------------------------|

Que viva el Llano!

 

Tags: , , , , , , , , , , ,

Comments are closed.

Volver a Cancionero