Volver a Cancionero



Horas de Ronda ,Acorde Guitarra, Letra Tabladura, Cancionero Tuna


 

Horas de Ronda

TunaEspaña, La Rondalla, Tuna Universitaria, Ronda La Tuna, Musica de Tuna, canciones de Tuna

Autor: Villena y Villellas

Interpretan: TunaEspaña

Don Dudo (TunaEspaña)

Ritmo: Pasacalles

España

 

Am                      E7
Con algazara cruza por la población
Dm         E7            Am  A7
la alegre tuna desgranando una canción,
Dm               Am
canción amante, canción de ronda,
Dm         E7            Am
que hace feliz a la mujer en su ilusión.

Am         E7          Am
Por una escala de guitarras y bandurrias
Dm              E7        Am / Dm / E7
trepan las coplas hasta el último balcón.

A           Bbd        E7
Horas de ronda de la alegre juventud
Bm           E7              A
que abren al viento surcos de noble inquietud.
Bbd           Bm
Sal niña hermosa, sal pronto a tu balcón
E7           A
que un estudiante te canta con pasión.

A           Bbd         E7
Horas de ronda que la noche guarda
C#7                     F#m
como un recuerdo que jamás se borra.
F#                    Bm
La estudiantina te dice adiós, mujer,
E7                        Am
y no suspires que pronto ha de volver.

Am                         E7
Rasga el silencio de la noche una canción
Dm          E7        Am  A7
que busca abrigo en un amante corazón,
Dm             Am
horas de ronda, rumor de capas,
Dm             E7            Am
y una letrilla que se enreda en un balcón.

Am         E7        Am
Tras los cristales una sombra femenina
Dm           E7          Am / Dm / E7
que escucha atenta, temblorosa de emoción.

CIFRADO

|-7-7-5-5-4-4-2-2-0---0-----5-5-4-4-2-2-2-4-2-1-2--4--4-4-4-9-9--4-9-7-5-4--5--2-2-2-7-7-
|-------------------2----4---------------------------------------------------------------
|----------------------------------------------------------------------------------------
|
|
|-4-4-2-2-0-0---------------2-2-0-0-------0--------0--1-1-1-1-1--1-1-1-1-1--2------------
|-------------4-4-2---2--0----------4-4-4---4-2-4------------------------------4-4-4-4-4-
|-------------------3--------------------------------------------------------------------

|-2-7-5-3-2--0---
|----------------
|----------------
|
|
|----------------
|-4-4-4-4-4--0---
|----------------

Con algazara cruza por la población la_alegre tuna desgranando_una canción, canción
|-7--7--7-9-7---7-7--9---7--5--4--5----5--5--5--7-5--5---5-7---5--4--2---4----0---2------
|----------------------------------------------------------------------------------------
|----------------------------------------------------------------------------------------
|
|
|-4--4--4-5-4---4-4--5---4--2--0--2----2--2--2--4-2--2---2-4---2--0------0---------------
|--------------------------------------------------------------------4--------2---4------
|----------------------------------------------------------------------------------------

amante canción de ronda que_hace feliz a la mujer en su_ilusión. Por una_escala de
|-4-4---------0---2--2-------7---7--7-9--7--7--5-7--5----4--2--0----0--5--2---4-7--0-----
|------2--4-------------0----------------------------------------------------------------
|----------------------------------------------------------------------------------------
|
|
|-0-0------------------------4---4--4-5--4--4--2-4--2----0--------------------0-0--0-----
|-------------0---2--2--------------------------------------4--0----0--0--0--------------
|------3--3-------------1----------------------------------------------------------------

guitarras y bandurrias trepan las coplas hasta_el último balcón
|--4-2--5-----2--0--------7-7---5---4--7---0---4---2--5----2--0--0-2-4-0-2-4-5-4-2-0-2-4-
|----------4---------0----------------------------------4--------------------------------
|----------------------------------------------------------------------------------------
|
|
|--0--------------------------------0--0---0---0-----------------------------------------
|----4--4--4--4--0--------0-0---0------------------4--4-4--4--0--------------------------
|--------------------1-------------------------------------------------------------------

Horas de ronda de la_alegre juventud que_abren al viento surcos de
|-5-7-7-7-7-7-7--7-7---5--5--4--4---2--2--0----0--------5---5--4---4---2--2--0---0-------
|--------------------------------------------2----4--------------------------------------
|----------------------------------------------------------------------------------------
|
|
|---2-2-2-2-2-2--4-4---2--2--0--0-----------------------2---2--0---0---------------------
|---4-4-4-4-4-4---------------------4--4--2----2--0--------------------4--4--2---2-------
|--------------------------------------------3-------------------------------------------

noble_inquietud sal niña_hermosa sal pronto_a tu balcón que_un estudiante te canta
|-----------------------------------------------0----------------------------------------
|-4---0----4--2---0---0--2----2-0--0----2---4------2--4-----0---0--2--2--0--0--2--4------
|----------------------------------------------------------------------------------------
|
|
|----------------------------------------------------------------------------------------
|-------------------------------------------0---2-----0---------------------------0------
|-3---0----3--2---2---2--3----3-2--2----3----------3--------2---2--3--3--2--2--3---------

con pasión. Horas de ronda que la noche guardará como_un recuerdo que jamás se borrará
|-0---2--4----7-7---5--5--4---4--2--2--0------0----5--5----4-4---2---2--2-4---2--1--2-4--
|------------------------------------------2----4----------------------------------------
|----------------------------------------------------------------------------------------
|
|
|--------0----4-4---2--2--0---0--------------------2--2----0-0------------0-----------0--
|-2---4--0-----------------------4--4--2------2-0----------------4---4--4-----4--2-4-----
|------------------------------------------3---------------------------------------------

la_estudiantina te dice_adiós mujer y no suspires que pronto_ha de volver.
|--4---4-4---9-9--4--9--7---5---4-5--2--2--2--7-7----2---7---5----3--2--0-----
|-----------------------------------------------------------------------------
|-----------------------------------------------------------------------------
|
|
|--1---1-1---1-1--1--1--1---1---1-2-------------------------------------------
|------------------------------------4--4--4--4-4----4---4---4----4--4--0-----
|-----------------------------------------------------------------------------

 

Tags: , , , , , , , , ,

Comments are closed.

Volver a Cancionero