Volver a Cancionero



La Morena de mi copla, Bandurria ,Acorde Guitarra, Letra Tabladura, Cancionero Tuna


 

La Morena de mi copla

Autor:  Jofre Villegas / Castellanos

Interpretan: Manolo Escobar, TunaEspaña

Tuna España (Don Dudo)     www.TunaEspana.com    www.TunaEspaña.es

Ritmo: Pasodoble

Pais: España

Tunas-Universitarias-Tunas-y-Estudiantinas-Tuna-España-Tunas-Cancionero-tuna-Ronda-la-tuna, Noche de Tuna, Don Dudo, universidad, tunos.com, certamen tuna

 

 

E
Julio Romero de Torres
F              E
pintó_a la mujer morena,

con los ojos de misterio
G      F       E    53 52 50
y el alma llena de pena.

G7                    C
Puso en sus manos de bronce
E
la guitara cantaora,
F                    E
y_en su bordón un suspiro,
F                  E    Dm / F / B7 / Dm / E / F / E
y_en su alma una dolora.

A              Bbd      E7
Morena, la de los rojos claveles,
A
la de la reja florida,
Bbd   E7
la reina de las mujeres.
Bm E7                   A
Morena  la del bordado mantón,
A7       D    Dm
la de la alegre guitarra,
A         E7      A   E7 / A
la del clavel español.

E
Como escapada de un cuadro,
F                E
y en el sentir de la copla,

toda España la venera,
G      F        E   53 52 50
toda España la adora.

G7               C
Trenza con su taconeo
E
la seguidilla gitana,
F                  E
con sus cantares morunos,
F
en la venta gaditana.

INTRODUCCIÓN: E, F, E / E, F, E, 60 62 64 / Am / 53 52 50 / G / 52 50 63 / F /
50 63 61 / E, F, E

CIFRADOS

|-------0-2-3-5-7--5-8-5-7--------0-5-7--5-8-5-7--------0-2-3--3-7-3-5--2-5-2-3--3-2-0---
|-0-2-4---------------------0-2-4-----------------0-2-4--------------------------------3-
|----------------------------------------------------------------------------------------

|----------0---------
|-1-0--1-3---3-1-0---
|--------------------

Julio Romero de Torres pintó_a la mujer morena con los ojos de misterio y_el alma llena
|-2-2---2-2-2--0--3--2---2---5---5--3-5---3-3-2--2---2--2-2---2--0--3-2---2---5--2-----0-
|------------------------------------------------------------------------------------3---
|----------------------------------------------------------------------------------------

de pena. Puso_en sus manos de bronce la guitarra canta_o_ora y_en su bordón un suspiro
|----------------------0-0-------3--3--3---5-7--7--5--3-5-3-2--5----3--2--3--2---0----2--
|-3--1-0---1--1----3---------3------------------------------------------------------4----
|----------------------------------------------------------------------------------------

y_en su alma_una dolora                                                   Morena la de
|-0----2-0---2--0----------------0-5-8-7-6--------0-2-5--3-2-0---------------------------
|------------------3-1-0---0-2-4------------0-2-4--------------3-1-0--1-0---0-2-2--0--2--
|---------------------------------------------------------------------------4------------

los rojos claveles la de la reja florida la reina de las muje_eres. Morena la del
|-------------------------------------0-0--4--7--5--4--2---0-2-0-------------------------
|-0---3-3----0-4-4---0--2--0--4-4---2----------------------------4----0-2-2--0--2--------
|----------------------------------------------------------------------------------------

bordado mantón la de la_alegre guitarra la del clavel español.
|------------0---0--2---4--7--5---4-7--5--4--2----0-2--0----0-----
|-0--4-4--2-----------------------------------------------4-------
|-----------------------------------------------------------------

 

Tags: , , , , , , , , , ,

Comments are closed.

Volver a Cancionero