Volver a Cancionero



Ronda del Silbido,Bandurria,Acorde Guitarra, Letra Tabladura, Cancionero Tuna


Ronda del silbido

TunaEspaña, Paraninfo Universidad, Ensayo General, cancionero tuna, Certamen Tuna, Juntamento

Popular Tuna

Interpretan: TunaEspaña, Alfredo Kraus

Tuna España (Don Dudo)     www.TunaEspana.com    www.TunaEspaña.es

Ritmo: vals

España

 

 

D
El a que yo me case      |
A7                 D  (/D7)| BIS
ha de ser a gusto o,     |
G              D B7
has de salir al balcón
Em         A7
al tiempo de hacer yo...

D        A7
o, pío, o, pa, pío, pa,
D        A7                D
o, pío, o, pa, pío, pa, pa, para bara ba.

D
Si me caso y tengo suegra     |
A7                 D  (/ D7) | BIS
ha de ser a condición |
G              D B7
que si al año no se muere
Em      A7
la tiro por el bal...

D        A7
o, pío, o, pa, pío, pa,
D        A7                D
o, pío, o, pa, pío, pa, pa, para bara ba.

D
Muerto de hambre y sin cenar     |
A7               D  (/ D7) | BIS
y tiritando de frío,             |
G               D B7
estoy pasando y pasando
Em       A7
solo por hacer yo...

D        A7
o, pío, o, pa, pío, pa,
D        A7                D
o, pío, o, pa, pío, pa, pa, para bara ba.

D
Y aquí se acaba la historia     |
A7                  D  (/ D7) | BIS
de aquellos amores os         |
G               D B7
ella se marchó con otro
Em        A7
yo me quedé haciendo...

D        A7
o, pío, o, pa, pío, pa,
D        A7                D
o, pío, o, pa, pío, pa, pa, para bara ba.

01, TunaEspaña, Cancionero tuna, Santiago compostela, dism, don dudo, carlos Espinosa Celdran, Silbido
CIFRADOS

El dí_a que yo me ca_ase ha de ser a gusto mí_o.              El dí_a que yo me ca_ase
|--------------------0-5-0-----------------------------0---------------------------0-5-0-
|-----2-2---3--2--3---------3--3--3--3--0-----0------2---2----------2-2---3--2--3--------
|------------------------------------------2----3----------3-----------------------------
|-3-------------------------------------------------------------3------------------------
|
|
|----------------------------------------------------------------------------------------
|-----------0-----0--2---2--0--0--0--0------------------------------------0-----0--2---2-
|-----3-3------3-------3----------------3--2--2-3----2-0-2-3--------3-3------3-------3---
|-3-------------------------------------------------------------3------------------------
ha de ser a gusto mí_o.              Has de salir al balcó___ón al tiempo de_hacer yo
|-----------------------------0---------0---2-------0---2--0-5-0-------------------------
|--3--3--3--3--0-----0------2---2--------------3-3----------------3---3---3---3----2--0--
|-----------------2----3----------3------------------------------------------------------
|----------------------------------------------------------------------------------------
|
|
|----------------------------------------------------------------------------------------
|--0--0--0--0---------------------------2---3--0-0--2---3--2-3-2--0---0---0---0----------
|--------------3--2--2-3----2-0-2-3-----------------------------------------------3---2--
|----------------------------------------------------------------------------------------
pí_o, pí_o, pí_o pa pí_o pa pí_o, pí_o, pí_o pa pí_o pa pa, para bara ba
|--0-----0---------------------0-----0------------------------------0--------
|----2-----2---3-3--3--3-2--0----2-----2---3-3--3--3-0-----------2----2------
|-------------------------------------------------------2--3---3---------3---
|
|
|----------------------------------------------------------------------------
|--2-----2-----0-0--0--0-------2-----2-----0-0--0--0-------------------------
|----3-----3-------------3--2----3-----3-------------3--2--3---3-2--0-2--3---
|----------------------------------------------------------------------------

Tags: , , , , , , , , , , , , ,

Comments are closed.

Volver a Cancionero