Volver a Cancionero



Cien años (Requinto) (Acorde guitarra) (Letra Musica)Tuna (Tab)


 

Cien años ; 1954

Autor: Musica Rubén Fuentes Gasson y Letra de Alberto Cervantes Gonzalez

Interpretan:   Pedro Infante; Trio Los Panchos (Rafael Basurto Lara); Trio Borinquen; Hermanos Martinez Gil; Bobby Capo

Tuna España (Don Dudo)     www.TunaEspana.com    www.TunaEspaña.es

Ritmo: Bolero

 

Requinto

                     ***  INTRO ARPEGIADO ***
          G*                   Am                   D7
e|---------0-0-------|---------5--5-------|---------5--5-------|
B|---------0-0-------|---------5--5-------|---------7--7-------|
G|-------4-----------|-------6------------|-------5------------|
D|-----5---------5---|-----7----------7---|-----7----------7---|
A|---5---------------|---7----------------|---5----------------|
E|-3---------------3-|-5------------------|-5----------------5-|

          G*                   Am                   D7
e|---------0--0-------|---------5--5------|---------5--5-------|
B|---------0--0-------|---------5--5------|---------7--7-------|
G|-------4------------|-------6-----------|-------5------------|
D|-----5----------5---|-----7----------7--|-----7----------7---|
A|---5----------------|---7---------------|---5----------------|
E|-3----------------3-|-5-----------------|-5----------------5-|

           G**
e|-----------0-------0--|
B|---------0---0-----0--|
G|-------4-------4---4--|
D|-----5-------------5--|
A|---5---------------5--|
E|-3-----------------3--|

                       *** REQUINTO ***
  |-----SOLO-----|G*                 Am                D7   G**
e|------7-7-7-7-7-7-7-6-5----|-8~10-8-------------------------|
B|------------------------8--|--------11-10-8-----------------|
G|-4~7-----------------------|----------------10-8—8~10-8--7--|
D|---------------------------|--------------------------------|

  |-----SOLO-----| G*                 Am                D7   G**
e|------7-7-7-7-7-7-7-6-5----|-8~10-8-------------------------|
B|------------------------8--|--------11-10-8-----------------|
G|---7-----------------------|----------------10-8—8~10-8--7--|
D|---------------------------|--------------------------------|
             Am        D7
Pasaste a mi lado
               G*     RIFF-1
Con gran indiferencia
            Am         D7
Tus ojos ni siquiera
                G*    RIFF-1
Voltearon hacia mí.

                 Am        D7
Te vi sin que me vieras
                    G*     RIFF-1
Te hable sin que me oyeras
              Am        D7
Y toda mi amargura
                   G*      RIFF-1
Se ahogo dentro de mí.

*** CORO en BOLERO ***
   G7             C
Me duele hasta la vida
   G7             C
Saber que me olvidaste
A7             D7
Pensar que ni desprecio
A7      RIFF-2
Merezca yo de ti.

              Am       D7
Y sin embargo sigues
               G*
Unida a mi existencia
               Am       D7
Y si vivo cien años
                    G*    RIFF-1 G**
Cien años pienso en ti.

                      *** REQUINTO ***
   |-----SOLO-----| G*                 Am                D7  G**
e|------7-7-7-7-7-7-7-6-5----|-8-10~8-------------------------|
B|------------------------8--|--------11-10-8-----------------|
G|-4~7-----------------------|----------------10-8—8~10-8--7--|
D|---------------------------|--------------------------------|

  |-----SOLO-----| G*                 Am                D7   G**
e|------7-7-7-7-7-7-7-6-5----|-8~10-8-------------------------|
B|------------------------8--|--------11-10-8-----------------|
G|---7-----------------------|----------------10-8—8~10-8--7--|
D|---------------------------|--------------------------------|

             Am        D7
Pasaste a mi lado
               G*     RIFF-1
Con gran indiferencia
            Am         D7
Tus ojos ni siquiera
                G*    RIFF-1
Voltearon hacia mí.

                 Am        D7
Te vi sin que me vieras
                    G*     RIFF-1
Te hable sin que me oyeras
              Am        D7
Y toda mi amargura
                   G*      RIFF-1
Se ahogo dentro de mí.

*** CORO en BOLERO ***
   G7             C
Me duele hasta la vida
   G7             C
Saber que me olvidaste
A7             D7
Pensar que ni desprecio
A7      RIFF-2
Merezca yo de ti.

              Am       D7
Y sin embargo sigues
               G*
Unida a mi existencia
               Am       D7
Y si vivo cien años
                    G*    RIFF-1 G**
Cien años pienso en ti.

                      *** REQUINTO ***
  |-----SOLO-----| G*                 Am                D7   G**
e|------7-7-7-7-7-7-7-6-5----|-8~10-8-------------------------|
B|------------------------8--|--------11-10-8-----------------|
G|---7-----------------------|----------------10-8—8~10-8--7--|
D|---------------------------|--------------------------------|

                                                  *** FIN ***

    *** RIFF-1 ***                      *** RIFF-2 ***
e|--------0-0-------|               e|--------0--------2-|
B|--------0-0-------|               B|------1---1------1-|
G|------4-----------|               G|----0-------0----2-|
D|-----5-------5----|               D|-----------------0-|
A|---5--------------|               A|-----------------0-|
E|-4-------------4--|               E|-0---------------0-|

 

 

 

TONO A

Intro:
1:--5-5-5-5-5-5-5-5-5-4-3-2-5-3---------------2-
2:--7-7-7-7-7-7-7-7-7-6-5-3-----6-5-3---------3-
3:------------------------------------5-3-3-2-2-
4:-7--------------------------------------------

A7       Bm        E
Pasaste a mi lado
         A          Bm C#m
con gran indiferencia
  Cm          Bm         E
tus ojos ni siquiera
                A
voltearon hacia mi.

A7                 Bm       E
Te vi sin que me vieras
         A          Bm C#m
te hable sin que me oyeras
Cm          Bm         E
y toda mi amargura
                   A
se ahogo dentro de mi.

  Em    A7          D
Me duele hasta la vida
  Em    A7          D
saber que me olvidaste
Bm           E
pensar que ni desprecio
Bm           E
meresca yo de ti.

A7                 Bm       E
Y sin embargo sigues
         A          Bm C#m
unida a mi existencia
Cm          Bm         E
y si vivo cien años
       A
cien años
          D
pienso en ti.

1:--5-5-5-5-5-5-5-5-5-4-3-2-5-3---------------2-
2:--7-7-7-7-7-7-7-7-7-6-5-3-----6-5-3---------3-
3:------------------------------------5-3-3-2-2-
4:-7--------------------------------------------

A7       Bm        E
Pasaste a mi lado
         A          Bm C#m
con gran indiferencia
  Cm          Bm         E
tus ojos ni siquiera
                A
voltearon hacia mi.

A7                 Bm       E
Te vi sin que me vieras
         A          Bm C#m
te hable sin que me oyeras
Cm          Bm         E
y toda mi amargura
                   A
se ahogo dentro de mi.

  Em    A7          D
Me duele hasta la vida
  Em    A7          D
saber que me olvidaste
Bm           E
pensar que ni desprecio
Bm           E
meresca yo de ti.

A7                 Bm       E
Y sin embargo sigues
         A          Bm C#m
unida a mi existencia
Cm          Bm         E
y si vivo cien años
       A
cien años
          D
pienso en ti.

1:--5-5-5-5-5-5-5-5-5-4-3-2-5-3---------------2-
2:--7-7-7-7-7-7-7-7-7-6-5-3-----6-5-3---------3-
3:------------------------------------5-3-3-2-2-
4:-7--------------------------------------------

Tono G

Intro
     G                    C                             G
e|---3-3--3-3--3-3--3-1-0-0-|-2-0---------------------|-3-|
B|---3-3--3-3--3-3--3-----1-|-----3-2-0---------------|-3-|
C|-4------------------------|-----------2-0-----------|-4-|
D|--------------------------|---------------0/2-0--0--|-5-|
A|------------------------3-|---------------------3---|-5-|
E|--------------------------|-------------------------|-3-|

   G         Am   D7
Pasaste a mi lado
               Bm7
con gran indiferencia
                Am
tus ojos ni siquiera
    D7           G
voltearon hacia mí.
                  Am    D7
Te vi sin que me vieras
                     Bm7
te hablé sin que me oyeras
              Am
y toda mi amargura
      D7            G  Cm G
se ahogó dentro de mí.
    G7             C
Me duele hasta la vida
  G7              C
saber que me olvidaste
 A7                D
pensar que ni desprecios
   A7          D7
merezca yo de ti.
              Am     D7
Y sin embargo sigues
               Bm7
unida a mi existencia
              Am
y si vivo cien años
    D7               G
cien años pienso en ti.

OTRO TONO

Requinto:
e---5-5-5-5-5-5-5-5-5~4~3-2-3~5-3-1-0-1-0---0-1-0--
b-7-7-7-7-7-7-7-7-7-7~6~5-3---------------3-------3
g--------------------------------------------------
d---------------------------------------------------

  D/A9   G*    A9
 e -0-  e-0-  e-0-
 b -1-  b-0-  b-1-
 g -0-  g-4-  g-0-
 d -0-  d-5-  d-1-
 a -0-  a-5-  a-0-
 e -0-  e-3-  e-0-

             Am   D/A9
Pasaste a mi lado
              G*
con gran indiferencia
              Am      A9
tus ojos ni siquiera
              G*
voltearon hacia mi.

                 Am   D/A9
Te vi sin que me vieras
                   G*
te hable sin que me oyeras
          Am     A9
y toda mi amargura
                G*
se ahogo dentro de mi.

    G7            C
Me duele hasta la vida
   G7             C
saber que me olvidaste
   A7             D
pensar que ni desprecio
  A7          D7
meresca yo de ti.

               Am   D/A9
Y sin embargo sigues
             G*
unida a mi existencia
           Am
y si vivo cien años
 A9
cien años
          D
pienso en ti.


Otro Tono 

 


Intro:
1:--5-5-5-5-5-5-5-5-5-4-3-2-5-3---------------2-
2:--7-7-7-7-7-7-7-7-7-6-5-3-----6-5-3---------3-
3:------------------------------------5-3-3-2-2-
4:-7--------------------------------------------

             Em     A7
Pasaste a mi lado
               D
con gran indiferencia
            Em         A7
tus ojos ni siquiera
                D
voltearon hacia mi.
                 Em       A7
Te vi sin que me vieras
                    D
te hable sin que me oyeras
              Em
y toda mi amargura
      A7           D
se ahogo dentro de mi.
    D7            G
Me duele hasta la vida
  D7              G
saber que me olvidaste
D7                A
pensar que ni desprecio
   E7          A
meresca yo de ti.
              Em       A7
Y sin embargo sigues
                D
unida a mi existencia
               Em
y si vivo cien años
     A7
cien años
          D
pienso en ti.

 


TONO C

  Cdim       Em   A7                D           Cdim      Em     A7
Pasaste a mi lado,   con gran indiferencia, tus ojos ni siquiera,

                D
voltearon hacia mí,

   Cdim          Em     A7                      D
te ví sin que me vieras,   te hablé sin que me oyeras,

  Cdim        Em          A7           D
y toda mi amargura, se ahogó dentro de mí.

   Am    D7       G       Am  D7         G
Me duele hasta la vida, saber que me olvidaste,

   E7            A          E7          A7
pensar que ni desprecios, merezca yo de tí;

  Cdim        Em     A7               D         Cdim         Em
y sin embargo sigues,  unida a mi existencia, y si vivo cien años,

     A7             D
cien años pienso en tí.

 


 

Comments are closed.

Volver a Cancionero



contador de visitas