Volver a Cancionero



Historia de un amor (Requinto) (Acorde guitarra) (Letra Tablatura) cancionero Tuna (Bolero)


 

Historia de un amor


Autor: Bolero escrito en 1955 por el panameño, Carlos Eleta Almarán, tras la muerte de su cuñada.

Interpretan:   Pedro Infante, Libertad Lamarque, Trio Los Panchos (Eydie Gorme), Lucho Gatica, Leo Marini

Tuna España (Don Dudo)     www.TunaEspana.com    www.TunaEspaña.es

Ritmo: Bolero

Panama

Enlace Youtube: pinche aqui para escuchar la canción (Trio Los Panchos (E. Gorme)

Enlace Youtube: pinche aqui para escuchar la canción (Pedro Infante)

Carlos Eleta Almarán, Compositor panameño (1918 – 2011)

Su máxima creación musical “Historia de un amor” fue compuesta en 1955. De acuerdo con datos del investigador musical colombiano, Jaime Rico Salazar, en su celebre Libro “Cien Años de Boleros” “el tema de la canción lo inspiró la muerte de la esposa de su hermano Fernando, situación que lo afecto sentimentalmente.

Todas sus canciones fueron firmadas con el seudónimo de Carlos Almarán. En una visita que le hiciera Leo Marini por aquellos días, Carlos le dio dos canciones para que las grabara. El bolerista de América escogió “Historia de un Amor”, tema musical con el que batió records de venta en discos. Por otro lado en un viaje que hiciera Lucho Azcárraga a Venezuela la interpretó allá, habiéndola escuchado Luis Arcaraz quien la incluyó dentro del repertorio de su orquesta, llevándola a México. Allí la escuchó Libertad Lamarque, quien también la grabó, teniendo la canción un éxito extraordinario, que le valió un Disco de Oro.

* ver “Caminos Diferentes” extraordinario Bolero de Carlos Eleta Almaran, interpretado por Los Tres Ases

 

 

Requinto (Versión Pedro Infante)

   E|-------------------------------------------------------
   A|-------------------------------------------------------
   D|--------------------------------------------------9-7-5
   G|-----9-----9---------------9-8-----8-----8------9------
   B|-8-7---7-8---8/10-10-8-7-7-----7-5---5-7--8-8-7--------
   e|-------------------------------------------------------

LA PARTE DE LOS VIOLINES

   E|-------------------------------------------------------
   A|-------------------------------------------------------
   D|-------------------------------------------------------
   G|-5-----------------3------------------2-----------5----
   B|---3-4-4-4-3-4/6-3---1-2-2-2-1-2/4-0----0-1^0-4-3------
   e|-------------------------------------------------------

Em

                     Am           B7
Ya no estás más a mi lado corazón
                 Em
en el alma sólo tengo soledad
                  D
y si ya no puedo verte
                         C
porque Dios lo hizo quererte
                 B7       Em
para hacerme sufrir más.

                     Am               B7
Siempre fuiste la razón de mi existir
               Em
adorarte para mí fue religión
                      D
en tus besos yo encontraba
                     C
el calor que me brindaba
     B7          Em
el amor de tu pasión.

                       Am
Es la historia de un amor
                   B7
como no hay otro igual
                   Em
que me hizo comprender

todo el bien todo el mal
                     D
que le dio luz a mi vida
                C
apagándola después
                      B7
ay..que noche tan obscura

B|-----5-3-2-------
e|-3-2-------------

C                     B7
 todo se me ha de volver.

E|------------7-5--------
A|---10-8-7-5-----9~ ----

Em

                     Am           B7
Ya no estás más a mi lado corazón
                 Em
en el alma sólo tengo soledad
                  D
y si ya no puedo verte
                         C
porque Dios lo hizo quererte
                 B7                Em
para hacerme sufrir más.

   E|-------------------------------------------------------
   A|-------------------------------------------------------
   D|--------------------------------------------------9-7-5
   G|-----9-----9---------------9-8-----8-----8------9------
   B|-8-7---7-8---8/10-10-8-7-7-----7-5---5-7--8-8-7--------
   e|-------------------------------------------------------

   E|-------------------------------------------------------
   A|-------------------------------------------------------
   D|-------------------------------------------------------
   G|-5-----------------3------------------2-----------5----
   B|---3-4-4-4-3-4/6-3---1-2-2-2-1-2/4-0----0-1^0-4-3------
   e|-------------------------------------------------------

                    Am
Es la historia de un amor
                   B7
como no hay otro igual
                   Em
que me hizo comprender

todo el bien todo el mal
                     D
que le dio luz a mi vida
                C
apagándola después
                      B7
ay..que noche tan obscura

B|-----5-3-2-------
e|-3-2-------------

C                     B7
 todo se me ha de volver.

E|------------7-5--------
A|---10-8-7-5-----9~ ----

Em

                     Am           B7
Ya no estás más a mi lado corazón
                 Em
en el alma sólo tengo soledad
                  D
y si ya no puedo verte
                         C
porque Dios lo hizo quererte
                 B7                Em
para hacerme sufrir más.

 

 

 

 

Requinto Version "Trio Los Panchos"
       Re-                 Sol-
Ya no estas mas ami lado corazón
Do+                 Fa+
en el alma solo tengo soledad
Re-                  Do+
y si ya no puedo verte
                                    La+#
porque Dios me hizo quererte
                              La7
para hacerme sufrir mas

        Re-                 Sol-
Siempre fuistes la razón de mi existir
Do+                     Fa+
adorarte para mi fue religion
Re-                         Do+
y en tus besos encontraba
                               La+#
el calor que me brindaba
    La7               Re-
el amor y la pasión

CORO

Re-                                  Sol-
ES LA HISTORIA DE UN AMOR
                                  La+
COMO NO HAY OTRO IGUAL
                                   Re-
QUE ME HISO COMPRENDER TODO

EL BIEN, TODO EL MAL,
                                  Sol-
QUE LE DIO LUZ A MI VIDA
Do+                          Fa+
APAGANDOLA DESPUES
La+#                    Sol-
AY QUE VIDA TAN OBSCURA
  La+#                     La7
SIN TU AMOR NO VIVIRE

        Re-                 Sol-
Siempre fuistes la razón de mi existir
Do+                     Fa+
adorarte para mi fue religion
Re-                         Do+
y en tus besos encontraba
                               La+#
el calor que me brindaba
    La7               Re-
el amor y la pasión

Re-                                  Sol-
ES LA HISTORIA DE UN AMOR
                                  La+
COMO NO HAY OTRO IGUAL
                                   Re-
QUE ME HISO COMPRENDER TODO

EL BIEN, TODO EL MAL,
                                  Sol-
QUE LE DIO LUZ A MI VIDA
Do+                          Fa+
APAGANDOLA DESPUES
La+#                    Sol-
AY QUE VIDA TAN OBSCURA
  La+#                     La7
SIN TU AMOR NO VIVIRE

  Re-                 Sol-
Siempre fuistes la razón de mi existir
Do+                     Fa+
adorarte para mi fue religion
Re-                         Do+
y en tus besos encontraba
                               La+#
el calor que me brindaba
    La7               Re-
el amor y la pasión.
e|------0--0--0--1------------|----------------0--------|
B|--------------3--3--0--1--3-|------3--3--3--1--1--0—1-|           
G|----------------------------|--------------------2----|  
D|-2--2-----------------------|-2--2--------------------|
A|----------------------------|-------------------------|
E|----------------------------|-------------------------|

e|-------------------------|--------------------|-----------------|
B|------1--1--1--0--3--0---|-0--0--0--0--0--1---|-----------1--0--|
G|-------------------------|---------------2--2-|------2--1-----2-|
D|-2--2--------------------|--------------------|-2--2------------|
A|-------------------------|--------------------|-----------------|
E|-------------------------|--------------------|-----------------|

  (Se repite 2 veces)
e|----------------------------------|
B|-1--0--0--1--0--3--3--1--0--0-----|
G|-----2-----------------------2--1-|
D|----------------------------------|
A|----------------------------------|
E|----------------------------------|

e|-0--------0--1--0-|------------------0-|
B|--3--1--3--1------|-3--1--0--1--3--0---|
G|------------------|--------------------|
D|------------------|--------------------|
A|------------------|--------------------|
E|------------------|--------------------|

e|---------------------|-----------------|
B|-1--0--0--1--0--3--3-|-3--1--0---------|
G|-----2---------------|--------2--0-----|
D|---------------------|------------3--2-|
A|---------------------|-----------------|
E|---------------------|-----------------|

 


 

Tags: , , , , , , , , , , , , , , , , , , , , , , , , , , , , , , , , , , , , , , , ,

Comments are closed.

Volver a Cancionero