Volver a Cancionero



Nuestro Juramento ,Acorde Guitarra, Letra Tabladura, Cancionero Tuna, bolero,Requinto


 

Nuestro Juramento

Autor: Benito de Jesús

Interpretan: Julio Jaramillo, Olimpo Cardenas, Trio Vegabajeño, Trio Cristal,Trio Los Panchos, Javier Solis

Tuna España (Don Dudo)     www.TunaEspana.com    www.TunaEspaña.es

Ritmo: Bolero

01-TunaEspaña-Tunas-de-España-021

Puerto Rico

 

  E7           Am        G  F   E7
e|----7-10-13-|12--------------|----------------7-7-7-10-13
B|--9---------|---13-10--------|--------9-9-9-9------------
G|9-----------|----------------|9-9-9-9--------------------
D|------------|----------------|---------------------------
A|------------|----------------|---------------------------
E|------------|----------------|---------------------------

  Am             Dm
e|12------------|13----------15----------13----------15---------
B|---13-10-10-10|---15-15-15----15-15-15----15-15-15----15-15-15
G|--------------|-----------------------------------------------
D|--------------|-----------------------------------------------
A|--------------|-----------------------------------------------
E|--------------|-----------------------------------------------

  Am
e|12----------13----------12----------13---------
B|---13-13-13----13-13-13----13-13-13----13-13-13
G|-----------------------------------------------
D|-----------------------------------------------
A|-----------------------------------------------
E|-----------------------------------------------

  E7                                            Am
e|10----------12----------10----------12-------|---------17
B|---12-12-12----12-12-12----12-12-12----12-12-|10-12-17---
G|---------------------------------------------|-----------
D|---------------------------------------------|-----------
A|---------------------------------------------|-----------
E|---------------------------------------------|-----------
 Am              A7              Dm
No puedo verte triste porque me mata
 E7                       Am
tu carita de pena, mi dulce amor,
 C                  B7              Em
me duele tanto el llanto que tu derramas,
  D7               C             B7    E7
que se llena de angustia mi corazón.

 Am              A7             Dm
Yo sufro lo indecible si tu entristeces
 E7                               Am  - A7
no quiero que la duda te haga lloraaaaaaaar,
 Dm   A7          Dm    A7            D7
hemos    jurado amarnos    hasta la muerte
Am
y si los muertos aman
             B7    E7         Am
despues de muertos   amarnos más.

(Coro)
 G                          C
Si yo muero primero es tu promesa
 G                     C
sobre de mi cadáver dejar caer
 A7       Dm         A7          Dm
todo el llanto que brote de tu tristeza
G                           C
y que todos se enteren de tu querer.

 G                           C
Si tu mueres primero yo te prometo
E7                                Am      A7
escribiré en la historia de nuestro amoooooor
 Dm     A7         Dm   A7        Dm
con toda el alma llena     de sentimiento
 Am
la escribiré con sangre
           B7     E7      Am
con tinta sangre del corazón.

  E7           Am        G  F   E7
e|----7-10-13-|12--------------|----------------7-7-7-10-13
B|--9---------|---13-10--------|--------9-9-9-9------------
G|9-----------|----------------|9-9-9-9--------------------
D|------------|----------------|---------------------------
A|------------|----------------|---------------------------
E|------------|----------------|---------------------------

  Am             Dm
e|12------------|13----------15----------13----------15---------
B|---13-10-10-10|---15-15-15----15-15-15----15-15-15----15-15-15
G|--------------|-----------------------------------------------
D|--------------|-----------------------------------------------
A|--------------|-----------------------------------------------
E|--------------|-----------------------------------------------

  Am
e|12----------13----------12----------13---------
B|---13-13-13----13-13-13----13-13-13----13-13-13
G|-----------------------------------------------
D|-----------------------------------------------
A|-----------------------------------------------
E|-----------------------------------------------

  E7                                            Am                G(***)
e|10----------12----------10----------12-------|---------17|-----|------
B|---12-12-12----12-12-12----12-12-12----12-12-|10-12-17---|-----|------
G|---------------------------------------------|-----------|-----|------
D|---------------------------------------------|-----------|-----|------
A|---------------------------------------------|-----------|-----|------
E|---------------------------------------------|-----------|0-1-2|3-----

(Coro)
 G(***)                     C
Si yo muero primero es tu promesa
 G                     C
sobre de mi cadáver dejar caer
 A7       Dm         A7          Dm
todo el llanto que brote de tu tristeza
G                           C
y que todos se enteren de tu querer.

 G                           C
Si tu mueres primero yo te prometo
E7                                Am      A7
escribiré en la historia de nuestro amoooooor
 Dm     A7         Dm   A7        Dm
con toda el alma llena     de sentimiento
 Am
la escribiré con sangre
           B7     E7      Am
con tinta sangre del corazón.

Nota: G(***) significa que al tocar el bajéo de G,
empiezo en la segunda parte cuando dice:

	     G(***)                     C
	... Si yo muero primero es tu promesa ...

 

Tags: , , , , , , , ,

Comments are closed.

Volver a Cancionero