Volver a Cancionero



Quinceañera (Requinto) (Acorde guitarra) (Letra Tablatura) cancionero Tuna (Bolero)


 

 

Quinceañera

Autor: «Guicho» Cisneros

Interpretan: Los Dandys (Fue grabada por Los Dandys de Mèxico,el autor es su director «Guicho» Cisneros)

Tuna España (Don Dudo)     www.TunaEspana.com    www.TunaEspaña.es

Ritmo: Bolero

Mejico

Enlace Youtube: Pinche aqui para escuchar la cancion

0000 TunaEspaña Lalo Trompetero o

 

Requinto Inicial


            D       D7          G     E7          A            D
            (                    Tremoleado                    ) 
E --5-5-5-3-2-2---2-10-10-9--10-7---7-12-12-10-10-9----7-5-7-3-2-------
B --7-7-7-5-3-3---3-12-12-10-12-8---8-14-14-12-12-10---8-7-8-5-3-------
G ---------------------------------------------------------------------
D ---------------------------------------------------------------------
A ---------------------------------------------------------------------
E ---------------------------------------------------------------------

Desde donde inicia el parentesis hasta donde termina, va tremoleado

Requinto de la partde de en medio
            D       D7          G     E7          A      E7        A
            (                    Tremoleado                         ) 
E --5-5-5-3-2-2---2-10-10-9--10-7---7-12-12-10-10-9----9--12-12-10-9---
B --7-7-7-5-3-3---3-12-12-10-12-8---8-14-14-12-12-10---10-14-14-12-10--
G ---------------------------------------------------------------------
D ---------------------------------------------------------------------
A ---------------------------------------------------------------------
E ---------------------------------------------------------------------
		RE
HA LLEGADO EL DIA
     RE7       SOL
QUE TANTO ESPERABAS
    MI7      LA
LA FECHA BENDITA
    MI7       LA
QUE NO OLVIDARAS.

		   LA7
HOY CUMPLES QUINCE AÑOS
	    RE
DULCE MUÑEQUITA
      SI7     MIm
TUS SUEÑOS DORADOS
    LA7      RE
YA SON REALIDAD.

ANTES ERAS NIÑA
    RE7      SOL
MI NIÑA CHIQUITA
    MI7     LA
HOY YA SEÑORITA
   MI       LA
DE LA SOCIEDAD.

		   LA7
NO HAY NADA EN EL MUNDO
	    RE
COSA MAS BONITA
     SI7      MIm
QUE VER TU CARITA 
    LA7   RE
DE FELICIDAD.

	     LA7
Y RECUERDA SIEMPRE
     	     RE
ESTOS QUINCE AÑOS
		LA7		
QUE EN TU VIDA NUNCA
	    RE
JAMAS VOLVERAN.

	    la7
Y RECUERDA SIEMPRE
	     RE
QUE TODOS GOZAMOS
	      LA7
CUANDO TU BAILASTE 
		   RE
AL COMPAS DE ESTE VALS.

ERES UNA REINA
RE7        SOL
ERES UNA DIOSA
  MI7        LA
ERES TAN HERMOSA
 MI7	   LA
TAN ANGELICAL.

	LA7
QUE AL CIELO PEDIMOS
	      RE
TAN SOLO UNA COSA
     SI7         MIm
QUE SEAS MUY DICHOSA
  LA7      RE
UNA ETERNIDAD.

	        LA7
QUE AL CIELO PEDIMOS
	      RE
TAN SOLO UNA COSA
     SI7         MIm
QUE SEAS MUY DICHOSA
  LA7      RE
UNA ETERNIDAD.
Requinto de entrada

G:2-2-2-4-4-2-2-----------------------------4-2-2-2----
B:2-2-2-3-3-2-2-7-7-5-5-3-3-9-9-7-7-5-5-2-0-3-2--2-2---
e:0-0-0---------5-5-4-4-2-2-7-7-5-5-4-4-3-2---------0-5

Requinto de enmedio

G:2-2-2-4-4-2-2--------------------------------------------------------
B:2-2-2-3-3-2-2-7-7-5-5-3-3-9-9-7-7-5-5-9-9-7-5-5-5-5-5-5-3-3-3-7-7-7-2
e:0-0-0---------5-5-4-4-2-2-7-7-5-5-4-4-7-7-5-4-4-4-4-4-4-2-2-2-5-5-5-0

G:------------------4-2-2-2----
B:2-2-3-2-7-2-2-3-2-3-2--2-2---
e:0-0-2-0-5-0-0-2-0---------0-5

 

Tags: , , , , , , , , , , , , , , , , , , , , , , , ,

Comments are closed.

Volver a Cancionero