Volver a Cancionero



La amorosa (Acorde guitarra) (Letra Tablatura) cancionero Tuna (Folklore Argentino)


 

La amorosa


Letra: Oscar Valles

Música: Hermanos  Diaz

Interpretan:   Atahualpa Yupanqui, Los Hermanos Abalos, Alfredo Zitarrosa, Los Carabajal, duo coplanacu, La Juntada

Tuna España (Don Dudo)     www.TunaEspana.com    www.TunaEspaña.es

Folclore  Argentino

Ritmo Zamba

Enlace Youtube: pinche aqui para escuchar la canción

 

Introducción:
              C#m         (A#)       B
e -----2-------2--------4----4--------6--------7-----
B -----4-------4--------5----5--------6--------7-----
G --4-----4-5-----5-5~6----6----6-6~7----7-7~8-------
D ---------------------------------------------------
A ---------------------------------------------------
E ---------------------------------------------------

                   C#m            
e -------2-----------2-----------4------------------
B -----4---4---4---4---4---4---5---5---5------------
G ---4-------4---5-------5---6-------6---6----------
D --------------------------------------------------
A --------------------------------------------------
E --------------------------------------------------

         F#7          (A#)       B  (F#7) B
e ---------------9--6--4--2-------------------------
B ---7-9-7-6-------------------------0---4----------
G ---------------9--6--4--2--------3-----4----------
D -------------------------------4-----2------------
A ----------------------------------------------1-2-
E ------------------------------------------2-4-----

B         (C#7)      F#7
Arden mis labios por tí
                Bsus2
muriendomé de amor,
               (C#7)
porque eres mi dueña,
F#/A#* (E/G#*) B  (F#7) B
santiagueña, de mi corazón.
               (C#7)
Porque eres mi dueña,
F#/A#* (E/G#*) B  (F#7) B
santiagueña, de mi corazón.

Temblando vuelves a mí
dejandomé tu adios
tus manos pequeñas
santiagueña, de mi corazón.
Tus manos pequeñas
santiagueña, de mi corazón.

              Bm      (G)     F#7
 D ---------2-4---------5--4--------
 A -2-4--5-------5---2--------------
 E ---------------------------2-456-
 Dormiran mis ojos sobre tu  pelo
             (F#7/G#*)  Bm
 como en las abras el sol,
                      (B7)
 amorosa flor de mi tierra
 Em                F#7     (F#7sus4) B
 miel santiagueña, dulce como el mistol.
                 (C#7)
 Mis sueños te sueñan,
 F#/A#* (E/G#*) B  (F#7) B
 santiagueña, de mi corazón.

Lloran mis ojos por tí
lágrimas de pasión
si tu me desdeñas,
santiagueña de mi corazón.
Si tu me desdeñas,
santiagueña de mi corazón.

Rezo tu nombre al partir
llamandomé tu voz
carita risueña,
santiagueña de mi corazón.
Carita risueña,
santiagueña de mi corazón.

 Dormirán mis ojos sobre tu pelo...

 

 

Tono LA

 A         (B7)       E7
Arden mis labios por tí
                A
muriendomé de amor
                 (B7)
porque eres mi dueña,
 E7   (D) A       (E7) A
santiagueña de mi corazón.
                 (B7)
Porque eres mi dueña,
 E7   (D) A       (E7) A
santiagueña de mi corazón.
 
 
Temblando vuelves a mí
dejandomé tu adios
tus manos pequeñas
santiagueña de mi corazón.
Tus manos pequeñas
santiagueña de mi corazón.
 
 
              Am             E7
 Dormiran mis ojos sobre tu pelo
                     Am
 como las habras al sol,
                         (A7)
 amorosa flor de mi tierra
 Dm                E7                A
 miel santiagueña, dulce como el mistol.
                 (B7)
 Mis sueños te sueñan,
  E7   (D) A       (E7) A
 santiagueña de mi corazón.
 
 
Lloran mis ojos por tí
lágrimas de pasión
si tu me desdeñas,
santiagueña de mi corazón.
Si tu me desdeñas,
santiagueña de mi corazón.
 
 
Rezo tu nombre al partir
llamandomé tu voz
carita risueña,
santiagueña de mi corazón.
Carita risueña,
santiagueña de mi corazón.
 
 
 Dormirán mis ojos sobre tu pelo...

 

Tags: , , , , , , , , , , , , , , , , , , , , , , , , , , , , , , , , , , , , , , , , , , ,

Comments are closed.

Volver a Cancionero