Volver a Cancionero



Choro (Acordes guitarra) (Letra) Cancionero Tuna;Tablaturas Cuatro Venezolano (Solista)


 

Choro

Autor:   Rodrigo Riera

Interpretan:   Altamiro Carrilho & Sebastião Tapajós; Eliane Elias

Tuna España (Don Dudo)    www.TunaEspaña.es    www.TunaEspana.com

Brasil

 

ver  (Picar Enlace) Choro (Instrumental) Cuatro Venezolano SOLISTA

Tablaturas Cuatro Venezolano (SOLISTA)

 

B :-2-------
F#:---------
D :---0-1---
A :---------


B :---0-1----
F#:----------
D :----------
A :-0--------


B :-2-------
F#:---------
D :---0-1---
A :---------

..


B :-2-------
F#:---------
D :---0-1---
A :---------


B :---0-1----
F#:----------
D :----------
A :-0--------


B :-2-------
F#:---------
D :---0-1---
A :---------

..


B :-1--------
F#:----------
D :---0-1----
A :----------



B :-4-3------
F#:----------
D :-3-2------
A :-3-2------
B :-1--------
F#:----------
D :---0-1----
A :----------



B :-4-3------
F#:----------
D :-3-2------
A :-3-2------
B :-2-------
F#:---------
D :---0-1---
A :---------


B :---0-1----
F#:----------
D :----------
A :-0--------


B :-2-------
F#:---------
D :---0-1---
A :---------

..


B :-2-------
F#:---------
D :---0-1---
A :---------


B :---0-1----
F#:----------
D :----------
A :-0--------


B :-2-------
F#:---------
D :---0-1---
A :---------

..


B :-----10------
F#:----------10-
D :-0------9----
A :---8---------

 

Comments are closed.

Volver a Cancionero