Volver a Cancionero



Amalia Rosa,Bandurria ,Acorde Guitarra, Letra Tabladura, Cancionero Tuna, Folclore Venezolano


 

Amalia Rosa

(Maracaibo)

Tuna España , Tunas Universitarias, Tunas y estudiantinas, cancionero tuna, certamen internacional Tuna Costa Calida, Don Dudo, Musica de Tuna, Buen Tunar,  Canciones de Tuna, Ronda La Tuna, serenata

Autor: F.R. y Rivera (El “Negro” Tino Carrasco)

Interpretan: Los Machucambos, Los Sabandeños, Dueto Criollisimo, Quinteto Contrapunto (1962)

Tuna España (Don Dudo)     www.TunaEspana.com    www.TunaEspaña.es

Ritmo: golpe venezolano

Folclore Venezolanoa

  

 

D
De Maracaibo salieron
G
dos palomitas volando,
A7
a la Guaira volverán,
D
a la Guaira volverán
G   A7     D         (2ª G / A7 / D / G / A7 / D)
pero a Maracaibo cuando. (BIS)

G
Maa me dio una cinta
D7
y Rosa me la qui,

Amalia peleó con ella
G
porque Juana, porque Juana se eno. (BIS)
A7
Ya se juntaron las cuatro
D
y eso es lo que quiero yo.

Amalia, Amalia, Amalia,
G
Amalia, Amalia Rosa
A7
esa es la que yo me llevo,
D
esa es la que yo me llevo
G      A7    D
por ser la más buena moza. (BIS)

D
Toma niña este puñal,
G
clávamelo en un costao
A7
y verás mi corazón,
D
y verás mi corazón
G   A7    D
junto al tuyo retratao.

María me dio una cinta ...

CIFRADOS

|--0-0-0-0---2-2-2-2---4-4-4-4---0-2-4-5-4-2-5--0-0-0---2-0-------     -2-2-4-4-5---0-0--
|--2-2-2-2---3-3-3-3---5-5-5-5------------------------3-----3-2--- BIS -3-3-5-5-2---2-2--
|--3-3-3-3---0-0-0-0----------------------------------------------     ------------------
|
|
|--0-0-0-0---2-2-2-2---0-0-0-0-------0-2-0------------------------     -----0-0----------
|--2-2-2-2---3-3-3-3---0-0-0-0---2-3-------3-2--2-2-2-0-3-2-0----- BIS -3-3-2-2-2---2-2--
|--3-3-3-3---0-0-0-0---2-2-2-2--------------------------------3---     -5-5-----3---3-3--
|----------------------3-3-3-3------------------------------------     ------------------

|-2-2-2-4-4-4--5---
|-3-3-3-5-5-5--2---
|------------------
|
|
|-------0-0-0------
|-3-3-3-2-2-2--2---
|-5-5-5--------3---
|------------------

De Maracaibo salieron dos palomitas volando a la Guaira volverán, a la Guaira volverán
|--0--0-0-0-----0-0--0---2---2-2-2-2---2-2--2-4--4--4---4--4--4-4---0--2--4---5--4--2-5-
|--2--2-2-2-----2-2--2---3---3-3-3-3---3-3--3-5--5--5---5--5--5-5-----------------------
|--3--3-3-3-----3-3--3---0---0-0-0-0---0-0--0-------------------------------------------
|
|
| De Maracaibo salieron dos palomitas volando a la Guaira volverán, a la Guaira volverán
|--0--0-0-0-----0-0--0---2---2-2-2-2---2-2--2-0--0--0---0--0--0-0---------0---2--0-------
|--2--2-2-2-----2-2--2---3---3-3-3-3---3-3--3-0--0--0---0--0--0-0---2--3------------3-2--
|--3--3-3-3-----3-3--3---0---0-0-0-0---0-0--0-2--2--2---2--2--2-2------------------------

pero_a Maracaibo cuando. (BIS)
|--0--0---0---2--0-----------
|-----------3-------3---2----
|----------------------------
|
|
| pero_a Maracaibo cuando. (BIS)
|----------------------------
|--2--2---2-0-3--2--0--------
|-----------------------3----

María me dio una cinta ...  (Sin púas)

Amalia_Amalia_Amalia_Amalia_Amalia Rosa_esa_es la que yo me llevo, esa_es la que yo me
|-0-0------0------0------0--0---5-5---5--2---2----2---2---7-5---5-4--4--4----4---4--4--4-
|------2------2------2-------------------------------------------------------------------
|----------------------------------------------------------------------------------------
|
|
| Amalia_Amalia_Amalia_Amalia_Amalia Rosa_esa_es la que yo me llevo, esa_es la que yo me
|--------------------------------------------------------0--0---0-------------------0--0-
|-2-2------2------2-------------3-3---3--0---0----0---0-----------0--0--0----0---0-------
|------3------3------3---3--3------------------------------------------------------------

llevo por ser la más buena moza.
|--5-0--0---0---0------2--0---------     -2-2-4-4-5---0-0---2-2-2-4-4-4--5---
|------------------3---------3-2---- BIS -3-3-2-2-2---2-2---3-3-3-5-5-5--2---
|-----------------------------------     ------------------------------------
|
|
|llevo por ser la más buena moza.
|--0---------------------------------     -----0-0-----------------0-0-0------
|----2--2---2---2--0---3--2---0------ BIS -3-3-2-2-2---2-2---3-3-3-2-2-2--2---
|-------------------------------3----     -5-5-----3---3-3---5-5-5--------3---
|------------------------------------     ------------------------------------

... por ser la más buena moooooooooooza
|------0---0---0------2--0------0---4---5--2-2-4-4-5---
|-----------------3---------2-3------------------------
|------------------------------------------------------
|
|
| ... por ser la más buena moooooooooooza
|------------------------------------------0-0---------
|------2---2---2--0---3--2----0-2-0-2-0----2-2-3-3-2---
|---------------------------3-----------3------5-5-3---

|-

Tablaturas Cuatro Venezolano

De Maracaibo salieron dos palomitas volando


a La Guaira volverán, a La Guaira volverán


pero a Maracaibo cuando? (Bis)

 

Maria me dio una cinta y Rosa me la quitó,

y Amalia peleó con ella porque Juana,

porque Juana se enojó (Bis)

 

Ya se juntaron las cuatro eso es lo que quiero yo


Amalia, Amalia, Amalia, Amalia, Amalia Rosa


esa es la que yo me llevo, esa es la que yo me llevo


por ser la mas benamoza (Bis)

 
Toma niña este puñal, ábreme por un costado
pa’que veas mi corazón, pa’que veas mi corazón
con el tuyo retratado (Bis)
 
Maria me dio una cinta…

Ya se juntaron las cuatro…

Amalia, Amalia, Amalia…



El “Negro” Tino Carrasco (Izq.) en compañía del cuatrista Ángel Álvarez
(El Chingo), en el año de 1939.

Tambien autor del conocidísimo Golpe Tocuyano
una musica, una voz, un estilo  insuperable.

Tags: , , , ,

Leave a Reply

Volver a Cancionero