Volver a Cancionero



La Aurora (Pupurri), Bandurria,Acorde Guitarra, Letra Tabladura, Cancionero Tuna


La Aurora

(Poutpurri)

 TunaEspaña, La Rondalla, Tuna Universitaria, Ronda La Tuna, Musica de Tuna, canciones de Tuna, Cancionero de Tuna

Autor: Letra y Musica de Vejvodo

Interpretan: TunaEspaña

Don Dudo (TunaEspaña)

Ritmo: Vals

España

Introduccion: Sol A7  Re  Sol A7 Re

 

Re         A7            Re         A7                  Re              Sol    A7

Española Salerosa, La más Bella Rosa Del Lindo Jardin

                                                                                                                         Re

Si tu sabes que te quiero, que por ti me muero, No me hagas sufrir

                      A7                   Re           A7                Re      Re7             Sol        A7   Sol A7 Re 

Dime si me correspondes, que no amas a nadie, mas que a mi, Dimelo, Dimelo

 

Re                A7        Re
Cuando la aurora extiende su manto
Sol                    A7
y el firmamento viste de azul,
Sol                   A7     Re   B7
no hay un lucero que brille tanto
Em                  A7     Re
como esos ojos que tienes .

A7                D
Bella aurora, si es que duermes
A7            D  D7
en brazos de la ilusión,
G                  D           B7
despierta si estás dormida, morena ,
Em        A7          D       D7
para escuchar mi canción de amor,
G                  D           B7
despierta si estás dormida, morena ,
Em         A7         D
para escuchar mi canción.

Re                                                   Dodism    mim

Debajo de tu ventana, hay un lindo mirador (mira, mirador)

A7                                                                        Re

Donde se para la Tuna, detenida por tu amor

                                                                       Sol             A7     

Ya se que estas, en la cama, ya se que no duermes No,

                                                                                             Re

Ya se que estas escuchando, las notas de mi cancion.

                                                       Re7                         Sol

No vayas, pero no vayas, donde la mar se agita

                                           Re               A7                Re

que si dulce es la brisa, mas dulce sera el amor.

 

D       A7     D
Bella niña sal al balcón
D7       G
que te estoy esperando a ti,
D   B7
para darte una serenata,
Em   A7    D
sólo, lo para ti.

.TunaEspaña,Insignia de Oro,Don Dudo, Carlos Espinosa Celdran

.

CIFRADOS

|--0-0-0-0---0-2-0-0-----5-4-2-0-----0-0-0-0---0-2-0-4---4-2-0-2---2-2-2-2-1-2-4-2-2-0---
|----------4---------2-----------3-----------4-------------------------------------------
|----------------------------------------------------------------------------------------
|
|
|------------------------2-0-------------------------0---0---------------------0---------
|--2-2-2-2-1-2-3-2-2---------3-2-0---2-2-2-2-1-2-3-2-------3-2-3---3-3-3-3-2-3---3-3-2---
|--------------------3-------------------------------------------------------------------

|--5-4-2-0-----0-0-0-0---2-0-------5-4-2-0-----
|----------3-----------3-----3-2-----------3---
|----------------------------------------------
|
|
|--2-0-----------------------------2-0---------
|------3-2-0---2-2-2-2-0-3-2-0---------3-2-0---
|------------------------------3---------------

Cuando la_aurora_extiende su manto             y_el firmamento viste de_azul,
|--0---0---0---0------0---2--0--0-----5-4-2-0-----0----0--0-0-----0--2---0--4—-4-2-0-2---
|-----------------4----------------2----------3----------------4-------------------------
|----------------------------------------------------------------------------------------
|
|
|-------------------------------------2-0-----------------------------------0--0---------
|--2---2---2---2--1---2---3--2--2---------3-2-0---2----2--2-2--1--2--3---2-------3-2-3---
|----------------------------------3-----------------------------------------------------
|----------------------------------------------------------------------------------------

no_hay un lucero que brille tanto            como_esos ojos que tienes tú.
|---2----2---2-2-1---2---4--2--2--0--5-4-2-0----0--0--0--0------2--0---------5-4-2-0-----
|--------------------------------------------3-------------3----------3---2----------3-2-
|----------------------------------------------------------------------------------------
|
|
|------------------------0-----------2-0-------------------------------------2-0---------
|---3----3---3-3-2---3------3--3--2------3-2-0--2--2--2--2-0----3--2--0----------3-2-0---
|--------------------------------------------------------------------------------------3-
|-------------------------------------------------------------------------3--------------

Bella_aurora si_es que duermes, en brazos de la ilusión.      Despierta si_estás
|------0---0-----------2--2---0--------0-0----------2-0---5-4-3--0--2---2---2---2--------
|--2---------3---3----------------2----------3--3----------------------------------------
|----------------------------------------------------------------------------------------
|
|
|----------------------------------------------------------------------------------------
|------2---2—0---0-----3--3---2--------2-2---0--0---3-2----------2--3---3---3---3--------
|--3------------------------------3------------------------------------------------------

dormida, morena sí, para_escuchar mi canción de_amor, despierta si_estás dormida,
|--4--2-0-----0-2--0----------0--2---0--------------0----0--2---2---2---2---4--2-0-------
|-----------4----------3--3--------------3-2-----3---------------------------------------
|----------------------------------------------------------------------------------------
|
|
|--0------------------------------------------------------------------------0------------
|-----3-2---1-2-3--2---0--0---2--3---2--0--------0--2----2--3---3---3---3------3-2-------
|------------------------------------------3---------------------------------------------
|----------------------------------------------------------------------------------------

morena sí, para_escuchar mi canción.
|----0-2--0----------0--2---0----------0-0-0-0-0-0---
|--4----------3--3-------------3--2----2-2-2-2-2-2---
|--------------------------------------3-3-3-3-3-3---
|
|
|--------------------------------------0-0-0-0-0-0---
|--1-2-3--2---0--0---2--3---2--0-------2-2-2-2-2-2---
|---------------------------------3----3-3-3-3-3-3---
|--------------------------------------0-0-0-0-0-0---

Bella niña sal al balcón, que te_estoy esperando_a ti, para darte_una serenata, sólo
|--------0-0--0--2---0----------------0--0--0-2---0---4-----0--2---2--2--4-2-2-0---0-5---
|--2--3-----------------2-----2---3-----------------------3------------------------------
|----------------------------------------------------------------------------------------
|
|
|-----------------------------------------------------0------------------0-----------2---
|-----0--2-2--2--3---2------------0---2--2--2-3---2-------0-2--3---3--3----3-3-2---2-----
|--3--------------------3-----3----------------------------------------------------------

sólo para ti.          ...sólo, sólo para ti.
|--4-2--0---------         --0-5---4-2--4-7--5----
|---------3--2----         -----------------------
|-----------------         -----------------------
|
|
|--0--------------         ----2---0----0---------
|----3--2-0-------         --2-------3----3--2----
|------------3----         -----------------------


Tags: , , , , , , , , ,

Leave a Reply

Volver a Cancionero