Volver a Cancionero



Cantinero de Cuba ,Acorde Guitarra, Letra Tabladura, Cancionero Tuna


Cantinero de Cuba

 Autor: Manuel Pareja Obregon

Manuel Pareja Obregon, Musico y compositor Español, (Sevilla 1933- Sevilla 1995).

Extraordinario compositor fundamentalmente de “Sevillanas” Entre sus obras más conocidas están las Sevillanas de la ReinaSe amaron dos caballos, tb compuso la “Salve rociera”, también conocida como “Salve a la Virgen del Rocío” o “Salve del olé”, con letra de Rafael De Leon

Interpretan: Trio Los Brillantes,sonora cubanisima, Sergio y Estibaliz

Tuna España (Don Dudo)     www.TunaEspana.com    www.TunaEspaña.es

Ritmo: Son

TunaEspaña, Tunas Españolas, Tunas Universitarias, Don Lupus Tunae. canciones de tuna, estudiantina

España

 

Am               A7          Dm
Tiene mi Cuba un son y una cantina,
G7                            C
hecha de caña y ron y agua marina.
Am           A7           Dm
El cantinero es un buen cubano,
E7           Gm A7
que una pena de amor lo volvió malo.

Dm                            Am
Cantinero de Cuba, Cuba, Cuba,
B7
Cantinero de Cuba, Cuba, Cuba,            (BIS)
E7             Am (A7)
sólo bebe aguardiente para olvidar.

Am                A7                Dm
Cuando va para el puerto siempre se asoma
G7                             C
esperando el mensaje de una paloma.
Am                A7             Dm
El maldice a los vientos más marineros:
E7               Gm A7
¡Por ti hincharon las velas de aquel velero!

Cantinero...

Am                    Dm                Am
Hoy me quiero emborrachar, necesito ser amado,
E7                        Am A7
para olvidar un pasado que no se puede olvidar.
Dm                   Am
Si yo pudiera cantar, pero la pena me ahoga,
E7                       Gm A7
la recuerdo a todas horas, y no la puedo olvidaaar.

Cantinero....

 

1 --3-2-0-3-0-3-0-3-2-0-------2-0---2---2---3-2-------------
2 ----------------------1---------3---3---3-----0-----------
3 ----------------------------------------------------------
4 ----------------------------------------------------------
5 ----------------------------------------------------------
6 ----------------------------------------------------------

1 --0-----0---0---0-------------------0-----1-0-------------
2 ----3-1---1---1---1---0-------0-1-3---3-3-----4-3---------
3 ------------------------2---2-----------------------------
4 ----------------------------------------------------------
5 ----------------------------------------------------------
6 ----------------------------------------------------------

1 ------1-0-1-1-0-1-0-1-0---------0---0-0---0---0-----------
2 ----3-------------------------3---3-----3---3---3---------
3 --2-------------------------2-----------------------------
4 ----------------------------------------------------------
5 ----------------------------------------------------------
6 ----------------------------------------------------------

1 ----------------------------------------------------------
2 --3-3-3-3-3-2-2-2-0-2-3-----3-2-0-3-2-0-------------------
3 ----------------------------------------0-----------------
4 ----------------------------------------------------------
5 ----------------------------------------------------------
6 ----------------------------------------------------------

1 ----------------------------------------------------------
2 --2-3-5-3-2-0-2-------------------------------------------
3 ----------------2-----------0-0-2-3-2-0-2-0---------------
4 ----------------------------------------------------------
5 ----------------------------------------------------------
6 ----------------------------------------------------------

1 ----------------------------------------------------------
2 --------1-------------------------------------------------
3 --3-2-3---3-2-1-0-----------------------------------------
4 ----------------------------------------------------------
5 ----------------------------------------------------------
6 ----------------------------------------------------------
TunaEspaña, Cancionero tuna, Tuna medicina Murcia, Musica de Tuna, Certamen Tuna, 27, dism

 


Tags: , , , , ,

Leave a Reply

Volver a Cancionero