Volver a Cancionero



Salome (Acorde guitarra) (Letra Tablatura) cancionero Tuna


Salomé

Autor: C. Curet Alonso

Interpretan: Cheo Feliciano

TunaEspaña (Don Dudo) www.TunaEspaña.es   www.TunaEspana.com

Ritmo:

Enlace Youtube: Pinche aqui para escuchar la canción

TunaEspaña 80

Intro:

G --------9----|
D -7---7-------| (4X)
A ---7---------|
E -------------|

G --------------------------9--
D -7-8-9-----------7-----7-----
A ---------7----7-----7--------
E ------------7----------------

Versos:

"Salomé...¡ay que tiempos feliz!...donde quiera que tu vivas...
con amor noche tras día...yo seguía tras de tí":

G --------9-------|------9------
D -7---7-----(5X)-|---9-----9---
A ---7------------|-7---------7-
E ----------------|-------------

"Salomé... sabes cuánto te amé...de nostalgia lloré...al volverte
a recordar..."

G ------9--------------|------9------9------9-
D ---9-----9------(5X)-|-7------7------7------
A -7---------7---------|---7-------7-----7----
E -------------7-------|----------------------

"Hoy me dicen...que te vieron por ahí...como sombra
 de una vida..."

G -----------------------------------------------7---
D -7-9----7---7---9----7---7----9----7---7----7----7-
A ------7---7---7---7----7---7-----7---7---5---------
E ---------------------------------------------------

"Que tristeza...mi divina Salomé..."

G ------7---------7---------7--------------
D ---7----7----7----7----7--------9---7----
A 5---------5---------5---------7---7---7--
E -----------------------------------------

"Persona que tanto amé...rondando así por ahí..."

G ---------------9----9-------------------
D -7----------9----9----7---7----9---7----
A -------5-7--------------7----7---7---7--
E ----7-----------------------------------

"Salomé...¡que tiempos feliz!...Cuando yo te quise a tí..."

G ---------7---------7---------7---------
D -7----7----7----7----7----7----7---7---
A ---5---------5---------5---------7-----
E ---------------------------------------

"...Mi divina Salomé..."

G ------------9---------------------
D ---------9----9----------9-9---7--
A ---5--7----------7---7-------7----
E -7-----------------7--------------

Coro/Montuno:

"Recuerdo que tuve ayer...amores con Salomé"

G ------------------------------------
D ---7--7------------------------5--7- (Varias veces)
A 7---------7----5-7-----7-7----------
E -------------7-------7-----7-5------

G ----
D ----
A 5-7-
E ----

Mambo/Vibes solo:

G -------9------------------------------
D -9-------9--------------11-11-----11-- (3X)
A ----7-------7--------9----------9-----
E ---------------7--9-----------9-------

G --------------------------11-
D --------------9-10-11--11----
A ---------10------------------
E -10--10----------------------

G -------9------------------------------
D -9-------9--------------11-11-----11-- (1X)
A ----7-------7--------9----------9-----
E ---------------7--9-----------9-------

G --------------------------11-
D --------------9-10-11--11----
A ---------10------------------
E -10--10----------------------

G -------9------------------------------
D -9-------9--------------11-11-----11-- (4X) (Vibes solo)
A ----7-------7--------9----------9-----
E ---------------7--9-----------9-------

Fin del mambo:

G --------------------
D -7------------------
A ---9-7-5-7--5-4-2-0-
E --------------------

Coro/Montuno (los mismos arreglos)

Final

G -----------
D -----------
A --7-7------
E --------5--

Tags: , ,

Comments are closed.

Volver a Cancionero