Volver a Cancionero



Aguinaldo jibaro (cancionero Tuna) Acordes Tablatura Cuatro Puertorriqueño, Musica Jibara


Aguinaldo jibaro

Autor:

Interpretan: TunaEspaña

TunaEspaña (Don Dudo) www.TunaEspaña.es   www.TunaEspana.com

Ritmo:

Enlace Youtube: Pinche aqui para escuchar la cancion

00 Tuna España Universidad Murcia Rector Cobacho 90

Afinacion Cuatro Puertorriqueño
1ra - 2da - 3ra - 4ta - 5ta
SOL-G RE-D  LA-A  MI-E  SI-B
Intro

G|---------------0---2-5-3-2-0-------------2-----------------------|
D|---------0-3-2---3-----------3-0-------2------------------------*|
A|---0-2-4-------------------------1-0-4---------------------------|
E|----------------------------------------------------------------*|
B|-----------------------------------------------------------------|

Acompañamiento                                                            

G|-------------------------------------2---------------------------|
D|---0-----------0-----------0-------2----------------------------*|
A|-----3-0-----0-----------1-----0-4-------------------------------|
E|---------3-1-----0-1-2-3-----3----------------------------------*|
B|-----------------------------------------------------------------|

G|-------------------------------------2---------------------------|
D|---------------0-----------0-------2----------------------------*|
A|-------------0-----------1-----0-4-------------------------------|
E|-----1---0-1-----0-1-2-3-----3----------------------------------*|
B|---3---1---------------------------------------------------------|

Adorno

G|---------0---2-5-3-2---2-7-9-6-----10-10-12-12-14-14-12-12-10----|
D|---0-3-2---3---------5---------7---12-12-14-14-15-15-14-14-12----|
A|-----------------------------------------------------------------|
E|-----------------------------------------------------------------|
B|-----------------------------------------------------------------| 

G|--10--9--9-------------------------------------------------------|
D|--12-11-11-------------------------------------------------------|
A|-----------------------------------------------------------------|
E|-----------------------------------------------------------------|
B|-----------------------------------------------------------------|  

Final

G|---------0-------0-2-3-3-----0-1-2-------------------------------|
D|---0-3-2---3-2-3---------2-3-------------0-----------------------|
A|-----------------------------------0-2-4-------------------------|
E|-----------------------------------------------------------------|
B|-----------------------------------------------------------------|

Tags: , , , , , , , , , , , , , , , , , , , , , , , , ,

Comments are closed.

Volver a Cancionero