Volver a Cancionero



El cumbanchero (cancionero Tuna) Acordes Tablatura Cuatro Puertorriqueño, Musica Jibara


El cumbanchero

Autor:Rafael Hernandez

Interpretan: TunaEspaña

TunaEspaña (Don Dudo) www.TunaEspaña.es   www.TunaEspana.com

Ritmo:

Enlace Youtube: Pinche aqui para escuchar la cancion

01 Tuna España 20 TT

El Cumbachero (La-)
1ra - 2da - 3ra - 4ta - 5ta
SOL-G RE-D  LA-A  MI-E  SI-B

  ParteI
G||-----2-2-2-2-2-2-2-2-5-2------2-2-2-2-2-2-2-2-5-2---------------|
D||*--2------------------------2-----------------------------------|
A||----------------------------------------------------------------|
E||*---------------------------------------------------------------|
B||----------------------------------------------------------------|

G|---2-4-5-2-4-0-2---0--------------------------------------------||
D|-----------------3---2-3-0-2---0------------2-3-2-0------------*||
A|-----------------------------3---2-3-0--------------3-2-0-------||
E|---------------------------------------4-----------------------*||
B|----------------------------------------------------------------||

 Parte II
G|---------0-3-2-0-------0-2-0---------------2-5-4-2-1--9----------|
D|-------2---------3---3-------3-2-0-----1-4-----------------------|
A|---0-4-------------------------------2---------------------------|
E|-----------------------------------------------------------------|
B|-----------------------------------------------------------------|

 Mambo I                                corte
G||-----------------------------||     |------2-------|
D||*---------------------------*||     |----2---------|
A||----0-2-3-2-0-2---0-3-0------||  x4 |--------------|
E||*---------------4-----------*||     |--------------|
B||-----------------------------||     |--------------| 

 Mambo II
G||--------------------------------------||
D||*-----2-0-3---0---2-------0----------*||
A||----3-------2---3---0-3-2-----2-0-----||  x4
E||*---------------------------4--------*||
B||--------------------------------------||  

Final
                                     Lam (Fanfaria)
G|-----------------------------2------2----------------------------|
D|-----2-0-3---0-------0-2-2-2--------2----------------------------|
A|---3-------2---3-2-3----------------3----------------------------|
E|-----------------------------------------------------------------|
B|-----------------------------------------------------------------|

Tags: , , , , , , , , , , , , , , , , , , , , , , , , ,

Comments are closed.

Volver a Cancionero