Volver a Cancionero



La Botellita (cancionero Tuna) Acordes Tablatura Cuatro Puertorriqueño, Musica Jibara Navideña


La Botellita

Autor:

Interpretan: TunaEspaña

TunaEspaña (Don Dudo) www.TunaEspaña.es   www.TunaEspana.com

Ritmo:

Enlace Youtube: Pinche aqui para escuchar la cancion

01 Tunas de España TunaEspaña 50 TT

LA CANCION ESTA EN MI MENOR

<INTRO>
||---------------|-----------|------------|-4-5-4---------|
||-----5555-4444-|-4444------|-5555-4444--|-------7-5-4---|
||---------------|------7777-|------------|-------------7-|
||-7-7-----------|-----------|------------|---------------|
||---------------|-----------|------------|---------------|

|------------------|---------------|
|-5-4--5-4--5--4-5-|-5-6—6-66--6-7-|
|------------------|---------------|
|------------------|---------------|
|------------------|---------------|
 DE LOS HIJOS DE MAMA . . .

|----------4-|-4-5-4---------||
|-7-7777-7---|-------7-5-4---||
|------------|-------------7-|| REPITE TODO
|------------|---------------||
|------------|---------------||
SOY EL QUE TOMA MAS RON . . .

|----------------|-----------|
|-----5555-44-44-|-4444------|
|----------------|------7-77-|
|-7-7------------|-----------|
|----------------|-----------|
SEÑORITA LA RANA . . .

||------------|-----------||
||-5555-44-44-|-4444------||
||------------|------7-77-|| REPITE X2
||------------|-----------||
||------------|-----------||
  Y QUE LE TRAJO . . .

||----------------(6)-|-------------------||
||---777-777--555-----|-4-5-4-5-----------||
||-7------------------|---------7---------|| REPITE X2
||--------------------|-------------------||
||--------------------|-------------------||

Tags: , , , , , , , , , , , , , , , , , , , , , , , ,

Comments are closed.

Volver a Cancionero