Volver a Cancionero



Seis Milonguero (cancionero Tuna) Acordes Tablatura Cuatro Puertorriqueño, Musica Jibara


Seis Milonguero

Autor:

Interpretan: TunaEspaña

TunaEspaña (Don Dudo) www.TunaEspaña.es   www.TunaEspana.com

Ritmo:

Enlace Youtube: Pinche aqui para escuchar la canción

01 TunaEspaña Portada 2

Intro

G|-------4-9-8-9-8-7-6-7-6-5-4-------4---4-------------------------|
D|-----5---------------------------4---7---4-7-6-7-5-4-------------|
A|---7---------------------------6---------------------7-----------|
E|-----------------------------7-----------------------------------|
B|-----------------------------------------------------------------|

                                                    x2 \ 
G|-------4-9-8-9-8-7-6-7-6-5-4-4-3-4-5-4-3-4-5-6-7-8-9-------------|
D|-----5----------------------------------------------------------*|
A|---7-------------------------------------------------------------|
E|----------------------------------------------------------------*|
B|-----------------------------------------------------------------|
                                                                   /

Acompañamiento(el trovador entra) 

G|---4-----5-4--4-----5-4--4-----5-4--4-----5-4--------------------|
D|-----5----------5----------4----------4--------------------------|
A|-------7----------7----------6----------6------------------------|
E|-----------------------------------------------------------------|
B|-----------------------------------------------------------------|

Cuando termina el trovador solo se toca mitad de acorde y se
regresa a el intro.

G|---4---------------|
D|-----5-------------|
A|-------7-----------|To Intro
E|-------------------|
B|-------------------|

Tags: , , , , , , , , , , , , , , , , , , , , , , ,

Comments are closed.

Volver a Cancionero