Volver a Cancionero



Contigo (Tabulado) Requinto


Contigo

Autor: Claudio Estrada

Interpretan:  Trio Los Panchos

 

 C               Em     Am
Tus besos se llegaron a recrear
            Dm
aqui en mi boca,
    G7          Dm        G7
llenando de ilusion y de pasion
      C
mi vida loca.

     C
Las horas mas felices de mi amor
        G7
fueron contigo,
    Rem           Edis
por eso es que mi alma siempre
G7          C         Am Dm G7
estraña el dulce alivio.

     C       Em            Am
Te puedo yo jurar ante un altar
         Dm
mi amor sincero,
  G7            Dm            G7
a todo el mundo le puedes contar
        C
que si te quiero.

                            C7
Tus labios me enseñaron a sentir
          F
lo que es ternura
  G7         Edis        G7
y no me cansare de bendecir
             C Am Dm G7
tanta dulzura.

REQUINTO:

 C               Em      Am
Tus besos se llegaron a recrear..........etc.
__
  \
_  e||--13--13--13--16--13---------------
_) B||----------------------14--13-------
   G||------------------------------15---
_  D||-----------------------------------
_) A||-----------------------------------
   E||-----------------------------------
__/

__
  \
_  e||----------------------13--14--------------
_) B||----------13--14--16----------------------
   G||--14--15----------------------------------
_  D||------------------------------------------
_) A||------------------------------------------
   E||------------------------------------------
__/

__
  \
_  e||--16--14--13------------------------------
_) B||---------------16--14--13-----------------
   G||---------------------------15--14--13-----
_  D||------------------------------------------
_) A||------------------------------------------
   E||------------------------------------------
__/

__
  \
_  e||--16--18--16--18--16--18--16--14--13--[13]------------------13--14--13--14--13--14--15--16--
_) B||--------------------------------------[16]--14--13--14--16----------------------------------
   G||--------------------------------------------------------------------------------------------
_  D||--------------------------------------------------------------------------------------------
_) A||--------------------------------------------------------------------------------------------
   E||--------------------------------------------------------------------------------------------
__/
Este es el requinto de la cancion contigo de los
panchos.algunos trios lo tocan en la +
habria que recorerlo dos trastes hacia arriba 

En sol mayor  Requinto (5 medios tonos arriba)
__
  \
   1|--7-7-7-10-7-------------------7-8-----
 ) 2|-------------8-7--------7-8-10---------
   3|-----------------9--8-9----------------
   4|---------------------------------------
 ) 5|---------------------------------------
   6|---------------------------------------
__/

_
  \
   1|-10-8-7-----------------10-12-10-12-10-
 ) 2|---------10-8-7------------------------
   3|-----------------9-8-7-----------------
   4|---------------------------------------
 ) 5|---------------------------------------
   6|---------------------------------------
__/

  \
   1|--8-7------7-----------------7-8-------
 ) 2|-------10----10--8-7-8-9-10------------
   3|---------------------------------------
   4|---------------------------------------
 ) 5|---------------------------------------
   6|---------------------------------------
__/

_                            en el final
  \                         se toca esto
   1|---7-8-7-8-9-10----------11---12-------
 ) 2|------------------------------12-------
   3|------------------------------12-------
   4|---------------------------------------
 ) 5|---------------------------------------
   6|---------------------------------------
__/


     D                      F#m

Tus besos se llegaron a recrear

           Em

aqui en mi boca,

    A7

llenando de ilusion y de pasion

         D

mi vida loca.

Las horas mas felices de mi amor

          Em     A7

fueron contigo,   

    Em                            A7

por eso es que mi alma siempre extrana 

           D     Em  A7 D

el dulce alivio.

                            F#m

Te puedo yo jurar ante un altar

           Em    A7

mi amor sincero, 

  Em                         A7

a todo el mundo le puedes contar

             D

que si te quiero.

    D7

Tus labios me ensenaron a sentir

              D

lo que es ternura,

  A7

y no me cansare de bendecir

          D

tanta dulzura.
Intro (requinto):

1|--0-0-0-3-0-------|-----------0-1-|-3-1-0---------------|

2|------------1-0---|-----0-1-3-----|-------3-1-0---------|

3|----------------2-|-1-2-----------|-------------2-1-0---|

4|------------------|---------------|---------------------|

5|------------------|---------------|---------------------|

6|------------------|---------------|---------------------|

1|--3-5-3-5-3-1-0---0-----|-------0-1-0-1-0-1-2-1-2-3-----|

2|----------------3---3-1-|-0-1-3-------------------------|

3|------------------------|-------------------------------|

4|------------------------|-------------------------------|

5|------------------------|-------------------------------|

6|------------------------|-------------------------------|

el REQUINTO de la cancion
'contigo'.
            INTRO

1--13--13--13--16--13--------------
2----------------------14--13------
3------------------------------15--
4----------------------------------
5----------------------------------
6----------------------------------

1----------------13--14------------
2--13x3--14--15--------------------
3----------------------------------
4----------------------------------
5----------------------------------
6----------------------------------

1--14X3--13------------------------
2------------15--14--13--12--------
3----------------------------------
4----------------------------------
5----------------------------------
6----------------------------------

1--15--17--15--17--15--17--15--17--15----------------14--15--15X3--16--17--
2--------------------------------------14X3--15--16------------------------
3--------------------------------------------------------------------------
4--------------------------------------------------------------------------
5--------------------------------------------------------------------------
6--------------------------------------------------------------------------
E----------------------------------------------------------
A----------------------------------------------------------
D----------------------------------------------------------
G---------------2-1-2-----------------------2-1-0----------
B-----------1-0-------0-1-3-----------3-1-0----------------
e-0-0-0-3-0-----------------0-1-3-1-0-------------3-5-3-5-3

-----------------------------------
-----------------------------------
-----------------------------------
-----------------------------------
-----3---3-1-0-1-3-----------------
-1-0---0-----------0-1-0-1-0-1-2-3-

 

Leave a Reply

Volver a Cancionero