Volver a Cancionero



Los hombres también de rabia lloran,(Acorde guitarra), (Letra Tablatura), cancionero Tuna


.

Los hombres también de rabia lloran

Autor:

Interpretan: Danny Rivera

TunaEspaña (Don Dudo) www.TunaEspaña.es  

Ritmo:

Enlace Youtube : Pinche aqui para escuchar la cancion

.

TunaEspaña, Tunas de España, Tunas Universitarias, Cancionero tuna, Pedro Cano,106

       Am          Dm          Dm5                 Dm         Am
|-0---0-----1--0--1-----2--1--2----1--0--1------------------------
|---3-----------------------------------------5--3--5---3h1h0-----
|-------2-----------2-----------2----------2------------------0h2-
|-----------------------------------------------------------------
|-----------------------------------------------------------------

Am                             E7
   Por todas las partes la busqué
                           Am
que suerte que no la encontré,
       F          G   F               E7
porque yo no era  yo,   la rabia me cegó.
    Am               E7
Yo que mi corazón le di
                       Am
tan sólo en cambio recibí
      F           G   F                      E7
un puñal de traición,   que en mi espalda clavó.

             A                             E7
Abandono mi nido y me dejó con las manos vacías
                Bm              E7               A     E7
y detrás de sus pasos corrieron locas las ansias mías,
                  A               A7                 D   Adim
con los brazos abiertos en par en par como quien implora
                   A                E7                 A
yo lloré porque a veces también los hombres de rabia lloran

Intro:
       Am          Dm          Am                              Am
|-0---0-----1--0--1-----2--1--2----1--0--1------------------------
|---3-----------------------------------------5--3--5---3h1h0-----
|-------2-----------2-----------2----------2------------------0h2-
|-----------------------------------------------------------------
|-----------------------------------------------------------------

Am                  E7
   Yo comencé a caminar
                    Am
sin conocer aquel lugar
        F       G   F                E7
pues pedí la razón,   desde que me dejó.
                     A                                 E7
No hallaré en otros labios el calor tierno que ella me daba,
            Bm               E7             A    E7
aún estoy viviendo con el recuerdo de su mirada,
                  A               A7                 D   Adim
con los brazos abiertos en par en par como quien implora
                   A                E7                 A      F7
yo lloré porque a veces también los hombres de rabia lloran.

             A#                             F7
Abandono mi nido y me dejó con las manos vacías
                Cm              F7               A#     F7
y detrás de sus pasos corrieron locas las ansias mías,
                  A#              A#7               D#   A#dim
con los brazos abiertos en par en par como quien implora
                   A#               F7                 A#
yo lloré porque a veces también los hombres de rabia lloran

             A#                             F7
Abandono mi nido y me dejó con las manos vacías
                Cm              F7               A#     F7
y detrás de sus pasos corrieron locas las ansias mías,
                  A#              A#7               D#   A#dim
con los brazos abiertos en par en par como quien implora
                   A#               F7                 A#
yo lloré porque a veces también los hombres de rabia lloran

A#  A# F7  F7  F#7

               B                                   F#7
|--------------6--7--9--7--7--6--9--7--7--7--7--7--6--6--
|--7--7--7--9--------------------------------------------
|--------------------------------------------------------
|--------------------------------------------------------
|--------------------------------------------------------
|--------------------------------------------------------

                 C#m           F#7               B         F#7
|-----------6--7--11--9--9--9--7--7--6--6--6-------------
|--9--9--9------------------------------------9--9--7----
|--------------------------------------------------------
|--------------------------------------------------------
|--------------------------------------------------------
|--------------------------------------------------------

                  B              B7                 E    Bdim
con los brazos abiertos en par en par como quien implora
                   B               F#7                  B   F#7
yo lloré porque a veces también los hombres de rabia lloran

 

Tags: , , , ,

Comments are closed.

Volver a Cancionero