Volver a Cancionero



Gema,Requinto Trio Los Panchos,Requinto Los Dandys,cancionero Tuna,Bolero


Gema 

Autor: Luis “Güicho” Cisneros Alveart; 1958

Interpretan: Trio Los panchos, Los Dandys, Javier Solis, Vicente Fernandez, Caetano Veloso, Cuarteto Almanaque

Tuna España (Don Dudo)     www.TunaEspana.com    www.TunaEspaña.es

Ritmo: Bolero

 

 

01 TunaEspaña Portada 2


INTRO: VERSION DE LOS PANCHOS
       Am                                   G
1|-------------------------------------------x--------
2|-------------------------------------------x--------
3|-------------------------------------------x--------
4|-------------------------------0-2-0-------5--------
5|---0---------------------0-2-3-------3-2-0-5--------
6|-0-----------------------------------------3--------

                  F                          E
1|-------------------x-----------------------0--------
2|-------------------x-----------------------0--------
3|-------------------x-----------------------0--------
4|---------0---------3-----------------------2--------
5|---0-2-3---3-2-0---3---------0-2-3-2-0-----2--------
6|-3---------------3-1-----1-3-----------3-1-0--------

1|-----1-0------0----------------|
2|-----3-1-3-1--1-3-1-0--3-1-0---|
3|---------4-2----4-2-1--4-2-1-2-|
4|-----------------------------2-|
5|-------------------------------|
6|-------------------------------| 

Am
Tu,
                 G
como piedra preciosa,
             F
como divina joya,
              E   F
valiosa de verdad.  

                    E     F
Si mis ojos no me mienten
                     E
si mis ojos no me engañan,
                     A     E7
tu belleza es sin igual.    

   A
Tuve una vez la ilusión               

de tener un amor
          Eo      E7
que me hiciera valer. 

Luego que te vi mujer 

yo te pude querer
                A
con toditita mi alma,
         E7        A
eres la gema que Dios

convirtiera en mujer
      A7         D
para bien de mi vida
                  A
por eso quise cantar
                   E7
y gritar que te quiero
             A   D
mujer consentida,
         E7      A
por eso elevo mi voz
                E7
bendiciendo tu nombre
               A
y pidiéndote amor.

0:27         …si mis ojos no me …        engañan….
E -14-11- -13-9-  —————————- —————–9
B –rapido——- ————–9————- –11-11-9-9–88—
G ————— —————11108——– -12–12-1010-99-9-
D ————— 101010-9-10-11——11-10–  ————–
A ————— —————————- —————
E ————— ————————–x2 ————–

… 1 vez la ilusion…          …hiciera valer
E ——————–5-8-5-8-5-8——- -666-5-3-6-x2-
B ——————-5—5—5—————————
G ——————————————————-
D —————————————————–
A -3-5-7-8————————————————
E ——————————————————-
…mi alma            …eres la gema que… ..de mi vida    …pidiéndote amor
E -1415–17 x2 -17181715 x2 ——13-9-        -17-18171517-x2
B –rapido——RAPIDO———–rapido         —rápido—-
G ————————————-        —————-
D ————————————-        —————-
A ————————————-         ————
E ————————————-         —————-
…valer                     …bien de mi vida
E -15/18-201817-18-201817-18- -13-9—
B –sigue rápido men XD —— ——–
G ————————— ——————
D ————————— —————-
A ————————— ————

E ————————— ——————

VERSION DE LOS DANDYS (para que suene igual que el disco pon Cejilla en el 1er Traste)

 

 Em                     D                      C                      B7
e-0-|-0-2-3-5-7-5-3-2-0----|---0-2-3-5-3-2-0------|-----0-2-3-2-0-------|
b---|-------------------3*-|-3---------------3-1*-|-1-3-----------3-1-0-|
g-0-|-0-2-4-5-7-5-4-2-0----|---0-2-4-5-4-2-0------|-----0-2-4-2-0-------|
d---|-------------------4*-|-4---------------4-2*-|-2-4-----------4-2-1-|

        Em       B7       Em
e-8-7-5-3--7-5-3-2--5-3-2-0--|
b----------------------------|
g-9-7-5-4--7-5-4-2--5-4-2-0--|

*Donde esta el asterisco, se tocan simultaneamente (pero no al mismo tiempo)
 la 1ª y la 2ª cuerda con la posición de su respectivo tono, O.K.
 (T®) Usaré este símbolo para indicar que se va a tremolear. 

  Em                  D
e---------------------14-10-14-10-|(T®)
  Tu, como piedra preciosa

              C
e-------------12-8-12-8-|(T®)
 como divina joya

               B7
valiosa de verdad;

            C                     B7
e------------------------3-2-0------------|
b-0-0-0---0-1------------------3-1-0------|
g-------2---------------------------------|
                si mis ojos no me mienten,

            C                     B7
e------------------------3-2-0--------5-5-3-3-2-2-|
b-0-0-0---0-1------------------3-1-0--------------|
g-------2-----------------------------5-5-4-4-2-2-|
              si mis ojos no me engañan;

Am                     B7
   tu belleza es sin igual.

d-----1-|
a-2-4---|

 E        B7         E
Tuve una vez la ilusion
      B7      E
de tener un amor

                    B7
e-------------------5--5-5-5-4-2-5--5-5-5-4-2-5-|
  que me hiciera valer,

F#m       B7      F#m
luego que te vi mujer
       B7     F#m
yo te pude querer
      B7        E
con toditita mi alma.

  E        B7       E          B7        E     E7
e-16-------17-------16---------17--------16-|(T®)
  Eres la gema que Dios convirtiera en mujer,

  E7                 A
e--------------------12----12----12-|(T®)
b-----------------------14----14----|(T®)
    para bien de mi vida;

         B7       E
por eso quise cantar
                 B7
y gritar que te quiero
             E
mujer consentida,    

  E7    A        B7      E
E-0-2-4-5------------------|
       por eso elevo mi voz

     C#m       F#m
bendiciendo tu nombre

         B7        E  B7       E   B7       E                    B7
(Æ)e---------------16-17-16-14-16--17-16-14-16-------------------14-|(T®)
    y pidiendote amor.                     .....que me hiciera valer.

     F#m B7       F#m  B7       F#m        B7        E
(Æ)e--17-19-17-16-17---19-17-16-17-------------------16-|(T®)
                                .....con toditita mi alma.
 ________________________________________________________________________________
| (Æ) El símbolo no significa nada, lo que pasa es que hay otro requinto         |
|     que se toca al mismo tiempo que el que hay les puse.                       |
|     Ahora les va el otro requinto que es a dos cuerdas y también va tremoleado.|
|                                                                                |
|      B7        E   B7     E   B7     E                    B7                   |
|e---------------4---5--4-2-4----5-4-2-4---------------------2-|(T®)             |
|b---------------5---7--5-4-5----7-5-4-5---------------------4-|(T®)             |
| y pidiendote amor.                   ....que me hiciera valer.                 |
|                                                                                |
|  F#m B7    F#m  B7    F#m        B7        E                                   |
|e--5---7-5-4-5----7-5-4-5-------------------4-|(T®)                             |
|b--7---9-7-5-7----9-7-5-7-------------------5-|(T®)                             |
|                       .....con toditita mi alma.                               |
|________________________________________________________________________________| 

  E        B7       E          B7        E     E7
e-16-------17-------16---------17--------16-|(T®)
  Eres la gema que Dios convirtiera en mujer,

  E7                 A
e--------------------12----12----12-|(T®)
b-----------------------14----14----|(T®)
    para bien de mi vida;

         B7       E
por eso quise cantar
                 B7
y gritar que te quiero
             E
mujer consentida,    

  E7    A        B7      E
E-0-2-4-5------------------|
       por eso elevo mi voz

     C#m       F#m
bendiciendo tu nombre

       B7        E B7  E
e---------------16-17-16-|(T®)
  y pidiendote amo--o--or.


Version mas sencilla

Esta canción en realidad
se toca con tres guitarras, una toca la intro, otra
lleva los bajos y la otra los adornos; pero si no se puede con
 tres, se puede solamente con dos, una los bajos y la otra la


e ------------------------------------------------
B ------------------------------------------------
G ---0-2-4-2-0----------------0-2-0---------------
D 2-4---------4-2-0------0-2-4-----4-2-0----------
A --------------------------------------3---------
E ------------------------------------------------

e ------------------------------------7---------12
B -------------------2-0----------------8-7-------
G ------0---------------2-0-2-0-------------------
D -0-2-3-3-2-0-------------4---4-2----------------
A 3-----------3-2---------------------------------
E -------------------------------------------0----

Em          G        D                   C
TÚ, COMO PIEDRA PRECIOSA, COMO DIVINA JOYA,
      Am       B7
VALIOSA DE VERDAD.
Am                    B7     Am                   B7
SI TUS OJOS NO ME MIENTEN, SI TUS OJOS NO ME ENGAÑAN,
                  E
TU BELLEZA SIN IGUAL.
E         F#m       E         F#m      E
TUVE UNA VEZ LA ILUSIÓN, DE TENER UN AMOR,
         F#m      B7
QUE ME HICIERA VALER.
A         B7       A          B7      A
LUEGO QUE TE VÍ MUJER, YO TE PUDE QUERER,
    B7            E
CON TODITITA EL ALMA.
E        F#m       E        F#m          E
ERES LA GEMA QUE DIOS, CONVIRTIERA EN MUJER,
       E7         A
PARA BIEN DE MI VIDA.
A  Am             E         C#7          F#m
POR ESO QUIERO CANTAR, Y GRITAR QUE TE QUIERO,
B7         E       E7
MUJER CONSENTIDA.
      A            E      C#7           F#m
POR ESO ELEVO MI VOZ, BENDICIENDO TU NOMBRE
B7              E
Y PIDIÉNDOTE AMOR.

e 16-16-16-17-16-14-16--16-16-17-16-14-16
B ---------------------------------------
      F#m         B7
QUE ME HICIERA VALER.

e 17-17-17-19-17-16-17--17-17-19-17-16-17
B ---------------------------------------
B7                 E
CON TODITIDA EL ALMA.

E        F#m       E        F#m          E
ERES LA GEMA QUE DIOS, CONVIRTIERA EN MUJER,
       E7         A
PARA BIEN DE MI VIDA.
A  Am             E         C#7          F#m
POR ESO QUIERO CANTAR, Y GRITAR QUE TE QUIERO,
B7         E       E7
MUJER CONSENTIDA.
      A            E      C#7           F#m
POR ESO ELEVO MI VOZ, BENDICIENDO TU NOMBRE
B7              E  F#m  E
Y PIDIÉNDOTE AMOR.


Tuna España, TunaEspaña, Cancionero Tuna, Certamen


Tags: , , , , , , , , , , , , , , , , , , , , , , , , , ,

Leave a Reply

Volver a Cancionero