Volver a Cancionero



Allegria,(Acorde guitarra), (Letra Tablatura), cancionero Tuna


.

Allegria

Autor:

Interpretan: Gipsy Kings

TunaEspaña (Don Dudo) www.TunaEspaña.es  

Ritmo: Rumba

Enlace Youtube :

.

Tunas Universitarias, Tunas y Estudiantinas, Tuna España ,Certamen Internacional Tunas, Tunos 1

 

2ª Guitarra

E||--2-------------------3--|--2----------------------|
B||--0---3---0-----1--3-----|------3---0-----0--1--3--|
G||-------------------------|-------------------------|
D||-------------------------|-------------------------|
A||-------------------------|--2----------------------|
E||--3----------3-----------|--0----------0-----------|

----------0-----------0--|--3h-3-2-----3--2-0---0h2h0----|
--1---3---------1--3-----|----------3---------3-------3--|
--2----------------------|--2----2--2--2-----------------|
-------------------------|--0----0-----0-----------------|
--0----------0-----------|-------------------------------|
-------------------------|-------------------------------|

--2-----2--2-2-2-2-----2--2-2-2-|--0-----0--0-0-0-0-----0--0-0-0-|
--3-3-3-3--3-3-3-3-3-3-3--3-3-3-|--0-0-0-0--0-0-0-0-0-0-0--0-0-0-|
--0-0-0-0--0-0-0-0-0-0-0--0-0-0-|--0-0-0-0--0-0-0-0-0-0-0--0-0-0-|
--0-0-0-0--0-0-0-0-0-0-0--0-0-0-|--2-2-2-2--2-2-2-2-2-2-2--2-2-2-|
--2-2-2-2--2-2-2-2-2-2-2--2-2-2-|--2-2-2-2--2-2-2-2-2-2-2--2-2-2-|
--3-3-3-3--3-3-3-3-3-3-3--3-3-3-|--0-0-0-0--0-0-0-0-0-0-0--0-0-0-|

--0-----0--0-0-0-0-----0--0-0-0-|--2-----2--2-2-2-2-----2--2-2-2-|
--1-1-1-1--1-1-1-1-1-1-1--1-1-1-|--3-3-3-3--3-3-3-3-3-3-3--3-3-3-|
--0-0-0-0--0-0-0-0-0-0-0--0-0-0-|--2-2-2-2--2-2-2-2-2-2-2--2-2-2-|
--2-2-2-2--2-2-2-2-2-2-2--2-2-2-|--0-0-0-0--0-0-0-0-0-0-0--0-0-0-|
--0-0-0-0--0-0-0-0-0-0-0--0-0-0-|--0-0-0-0--0-0-0-0-0-0-0--0-0-0-|
--0-0-0-0--0-0-0-0-0-0-0--0-0-0-|--0-0-0-0--0-0-0-0-0-0-0--0-0-0-|

--2-----2--2-2-2-2-----2--2-2-2-|--0-----0--0-0-0-0-----0--0-0-0-|
--3-3-3-3--3-3-3-3-3-3-3--3-3-3-|--0-0-0-0--0-0-0-0-0-0-0--0-0-0-|
--0-0-0-0--0-0-0-0-0-0-0--0-0-0-|--0-0-0-0--0-0-0-0-0-0-0--0-0-0-|
--0-0-0-0--0-0-0-0-0-0-0--0-0-0-|--2-2-2-2--2-2-2-2-2-2-2--2-2-2-|
--2-2-2-2--2-2-2-2-2-2-2--2-2-2-|--2-2-2-2--2-2-2-2-2-2-2--2-2-2-|
--3-3-3-3--3-3-3-3-3-3-3--3-3-3-|--0-0-0-0--0-0-0-0-0-0-0--0-0-0-|

--0-----0--0-0-0-0-----0--0-0-0-|--2--2---2-2-2-2--------|
--1-1-1-1--1-1-1-1-1-1-1--1-1-1-|--3--3---3-3-3-3--------|
--0-0-0-0--0-0-0-0-0-0-0--0-0-0-|--2--2---2-2-2-2--------|
--2-2-2-2--2-2-2-2-2-2-2--2-2-2-|--0--0---0-0-0-0--------|
--0-0-0-0--0-0-0-0-0-0-0--0-0-0-|--0--0---0-0-0-0--------|
--0-0-0-0--0-0-0-0-0-0-0--0-0-0-|--0--0---0-0-0-0--------|

--2-----2--2-2-2-2-----2--2-2-2-|--0-----0--0-0-0-0-----0--0-0-0-|
--3-3-3-3--3-3-3-3-3-3-3--3-3-3-|--0-0-0-0--0-0-0-0-0-0-0--0-0-0-|
--0-0-0-0--0-0-0-0-0-0-0--0-0-0-|--0-0-0-0--0-0-0-0-0-0-0--0-0-0-|
--0-0-0-0--0-0-0-0-0-0-0--0-0-0-|--2-2-2-2--2-2-2-2-2-2-2--2-2-2-|
--2-2-2-2--2-2-2-2-2-2-2--2-2-2-|--2-2-2-2--2-2-2-2-2-2-2--2-2-2-|
--3-3-3-3--3-3-3-3-3-3-3--3-3-3-|--0-0-0-0--0-0-0-0-0-0-0--0-0-0-|

--0-----0--0-0-0-0-----0--0-0-0-|--2-----2--2-2-2-2-----2--2-2-2-|
--1-1-1-1--1-1-1-1-1-1-1--1-1-1-|--3-3-3-3--3-3-3-3-3-3-3--3-3-3-|
--0-0-0-0--0-0-0-0-0-0-0--0-0-0-|--2-2-2-2--2-2-2-2-2-2-2--2-2-2-|
--2-2-2-2--2-2-2-2-2-2-2--2-2-2-|--0-0-0-0--0-0-0-0-0-0-0--0-0-0-|
--0-0-0-0--0-0-0-0-0-0-0--0-0-0-|--0-0-0-0--0-0-0-0-0-0-0--0-0-0-|
--0-0-0-0--0-0-0-0-0-0-0--0-0-0-|--0-0-0-0--0-0-0-0-0-0-0--0-0-0-|

--2-----2--2-2-2-2-----2--2-2-2-|--0-----0--0-0-0-0-----0--0-0-0-|
--3-3-3-3--3-3-3-3-3-3-3--3-3-3-|--0-0-0-0--0-0-0-0-0-0-0--0-0-0-|
--0-0-0-0--0-0-0-0-0-0-0--0-0-0-|--0-0-0-0--0-0-0-0-0-0-0--0-0-0-|
--0-0-0-0--0-0-0-0-0-0-0--0-0-0-|--2-2-2-2--2-2-2-2-2-2-2--2-2-2-|
--2-2-2-2--2-2-2-2-2-2-2--2-2-2-|--2-2-2-2--2-2-2-2-2-2-2--2-2-2-|
--3-3-3-3--3-3-3-3-3-3-3--3-3-3-|--0-0-0-0--0-0-0-0-0-0-0--0-0-0-|

--0-----0--0-0-0-0-----0--0-0-0-|--2-----2--2-2-2-2-----2--2-2-2-|
--1-1-1-1--1-1-1-1-1-1-1--1-1-1-|--3-3-3-3--3-3-3-3-3-3-3--3-3-3-|
--0-0-0-0--0-0-0-0-0-0-0--0-0-0-|--2-2-2-2--2-2-2-2-2-2-2--2-2-2-|
--2-2-2-2--2-2-2-2-2-2-2--2-2-2-|--0-0-0-0--0-0-0-0-0-0-0--0-0-0-|
--0-0-0-0--0-0-0-0-0-0-0--0-0-0-|--0-0-0-0--0-0-0-0-0-0-0--0-0-0-|
--0-0-0-0--0-0-0-0-0-0-0--0-0-0-|--0-0-0-0--0-0-0-0-0-0-0--0-0-0-|

--2-----2--2-2-2-2-----2--2-2-2-|--0-----0--0-0-0-0-----0--0-0-0-|
--3-3-3-3--3-3-3-3-3-3-3--3-3-3-|--0-0-0-0--0-0-0-0-0-0-0--0-0-0-|
--0-0-0-0--0-0-0-0-0-0-0--0-0-0-|--0-0-0-0--0-0-0-0-0-0-0--0-0-0-|
--0-0-0-0--0-0-0-0-0-0-0--0-0-0-|--2-2-2-2--2-2-2-2-2-2-2--2-2-2-|
--2-2-2-2--2-2-2-2-2-2-2--2-2-2-|--2-2-2-2--2-2-2-2-2-2-2--2-2-2-|
--3-3-3-3--3-3-3-3-3-3-3--3-3-3-|--0-0-0-0--0-0-0-0-0-0-0--0-0-0-|

--0-----0--0-0-0-0-----0--0-0-0-|--2-----2--2-2-2-2-----2--2-2-2-|
--1-1-1-1--1-1-1-1-1-1-1--1-1-1-|--3-3-3-3--3-3-3-3-3-3-3--3-3-3-|
--0-0-0-0--0-0-0-0-0-0-0--0-0-0-|--2-2-2-2--2-2-2-2-2-2-2--2-2-2-|
--2-2-2-2--2-2-2-2-2-2-2--2-2-2-|--0-0-0-0--0-0-0-0-0-0-0--0-0-0-|
--0-0-0-0--0-0-0-0-0-0-0--0-0-0-|--0-0-0-0--0-0-0-0-0-0-0--0-0-0-|
--0-0-0-0--0-0-0-0-0-0-0--0-0-0-|--0-0-0-0--0-0-0-0-0-0-0--0-0-0-|

--2-----2--2-2-2-2-----2--2-2-2-|--0-----0--0-0-0-0-----0--0-0-0-|
--3-3-3-3--3-3-3-3-3-3-3--3-3-3-|--0-0-0-0--0-0-0-0-0-0-0--0-0-0-|
--0-0-0-0--0-0-0-0-0-0-0--0-0-0-|--0-0-0-0--0-0-0-0-0-0-0--0-0-0-|
--0-0-0-0--0-0-0-0-0-0-0--0-0-0-|--2-2-2-2--2-2-2-2-2-2-2--2-2-2-|
--2-2-2-2--2-2-2-2-2-2-2--2-2-2-|--2-2-2-2--2-2-2-2-2-2-2--2-2-2-|
--3-3-3-3--3-3-3-3-3-3-3--3-3-3-|--0-0-0-0--0-0-0-0-0-0-0--0-0-0-|

--0-----0--0-0-0-0-----0--0-0-0-|--2-----2--2-2-2-2-----2--2-2-2-|
--1-1-1-1--1-1-1-1-1-1-1--1-1-1-|--3-3-3-3--3-3-3-3-3-3-3--3-3-3-|
--0-0-0-0--0-0-0-0-0-0-0--0-0-0-|--2-2-2-2--2-2-2-2-2-2-2--2-2-2-|
--2-2-2-2--2-2-2-2-2-2-2--2-2-2-|--0-0-0-0--0-0-0-0-0-0-0--0-0-0-|
--0-0-0-0--0-0-0-0-0-0-0--0-0-0-|--0-0-0-0--0-0-0-0-0-0-0--0-0-0-|
--0-0-0-0--0-0-0-0-0-0-0--0-0-0-|--0-0-0-0--0-0-0-0-0-0-0--0-0-0-|

--2-----2--2-2-2-2-----2--2-2-2-|--0-----0--0-0-0-0-----0--0-0-0-|
--3-3-3-3--3-3-3-3-3-3-3--3-3-3-|--0-0-0-0--0-0-0-0-0-0-0--0-0-0-|
--0-0-0-0--0-0-0-0-0-0-0--0-0-0-|--0-0-0-0--0-0-0-0-0-0-0--0-0-0-|
--0-0-0-0--0-0-0-0-0-0-0--0-0-0-|--2-2-2-2--2-2-2-2-2-2-2--2-2-2-|
--2-2-2-2--2-2-2-2-2-2-2--2-2-2-|--2-2-2-2--2-2-2-2-2-2-2--2-2-2-|
--3-3-3-3--3-3-3-3-3-3-3--3-3-3-|--0-0-0-0--0-0-0-0-0-0-0--0-0-0-|

--0-----0--0-0-0-0-----0--0-0-0-|--2-----2--2-2-2-2-----2--2-2-2-|
--1-1-1-1--1-1-1-1-1-1-1--1-1-1-|--3-3-3-3--3-3-3-3-3-3-3--3-3-3-|
--0-0-0-0--0-0-0-0-0-0-0--0-0-0-|--2-2-2-2--2-2-2-2-2-2-2--2-2-2-|
--2-2-2-2--2-2-2-2-2-2-2--2-2-2-|--0-0-0-0--0-0-0-0-0-0-0--0-0-0-|
--0-0-0-0--0-0-0-0-0-0-0--0-0-0-|--0-0-0-0--0-0-0-0-0-0-0--0-0-0-|
--0-0-0-0--0-0-0-0-0-0-0--0-0-0-|--0-0-0-0--0-0-0-0-0-0-0--0-0-0-|

--2-----2--2-2-2-2-----2--2-2-2-|--0-----0--0-0-0-0-----0--0-0-0-|
--3-3-3-3--3-3-3-3-3-3-3--3-3-3-|--0-0-0-0--0-0-0-0-0-0-0--0-0-0-|
--0-0-0-0--0-0-0-0-0-0-0--0-0-0-|--0-0-0-0--0-0-0-0-0-0-0--0-0-0-|
--0-0-0-0--0-0-0-0-0-0-0--0-0-0-|--2-2-2-2--2-2-2-2-2-2-2--2-2-2-|
--2-2-2-2--2-2-2-2-2-2-2--2-2-2-|--2-2-2-2--2-2-2-2-2-2-2--2-2-2-|
--3-3-3-3--3-3-3-3-3-3-3--3-3-3-|--0-0-0-0--0-0-0-0-0-0-0--0-0-0-|

--0-----0--0-0-0-0-----0--0-0-0-|--2-----2--2-2-2-2-----2--2-2-2-|
--1-1-1-1--1-1-1-1-1-1-1--1-1-1-|--3-3-3-3--3-3-3-3-3-3-3--3-3-3-|
--0-0-0-0--0-0-0-0-0-0-0--0-0-0-|--2-2-2-2--2-2-2-2-2-2-2--2-2-2-|
--2-2-2-2--2-2-2-2-2-2-2--2-2-2-|--0-0-0-0--0-0-0-0-0-0-0--0-0-0-|
--0-0-0-0--0-0-0-0-0-0-0--0-0-0-|--0-0-0-0--0-0-0-0-0-0-0--0-0-0-|
--0-0-0-0--0-0-0-0-0-0-0--0-0-0-|--0-0-0-0--0-0-0-0-0-0-0--0-0-0-|

--2-----2--2-2-2-2-----2--2-2-2-|--0-----0--0-0-0-0-----0--0-0-0-|
--3-3-3-3--3-3-3-3-3-3-3--3-3-3-|--0-0-0-0--0-0-0-0-0-0-0--0-0-0-|
--0-0-0-0--0-0-0-0-0-0-0--0-0-0-|--0-0-0-0--0-0-0-0-0-0-0--0-0-0-|
--0-0-0-0--0-0-0-0-0-0-0--0-0-0-|--2-2-2-2--2-2-2-2-2-2-2--2-2-2-|
--2-2-2-2--2-2-2-2-2-2-2--2-2-2-|--2-2-2-2--2-2-2-2-2-2-2--2-2-2-|
--3-3-3-3--3-3-3-3-3-3-3--3-3-3-|--0-0-0-0--0-0-0-0-0-0-0--0-0-0-|

--0-----0--0-0-0-0-----0--0-0-0-|--2-----2--2-2-2-2-----2--2-2-2-|
--1-1-1-1--1-1-1-1-1-1-1--1-1-1-|--3-3-3-3--3-3-3-3-3-3-3--3-3-3-|
--0-0-0-0--0-0-0-0-0-0-0--0-0-0-|--2-2-2-2--2-2-2-2-2-2-2--2-2-2-|
--2-2-2-2--2-2-2-2-2-2-2--2-2-2-|--0-0-0-0--0-0-0-0-0-0-0--0-0-0-|
--0-0-0-0--0-0-0-0-0-0-0--0-0-0-|--0-0-0-0--0-0-0-0-0-0-0--0-0-0-|
--0-0-0-0--0-0-0-0-0-0-0--0-0-0-|--0-0-0-0--0-0-0-0-0-0-0--0-0-0-|

--2-----2--2-2-2-2-----2--2-2-2-|--0-----0--0-0-0-0-----0--0-0-0-|
--3-3-3-3--3-3-3-3-3-3-3--3-3-3-|--0-0-0-0--0-0-0-0-0-0-0--0-0-0-|
--0-0-0-0--0-0-0-0-0-0-0--0-0-0-|--0-0-0-0--0-0-0-0-0-0-0--0-0-0-|
--0-0-0-0--0-0-0-0-0-0-0--0-0-0-|--2-2-2-2--2-2-2-2-2-2-2--2-2-2-|
--2-2-2-2--2-2-2-2-2-2-2--2-2-2-|--2-2-2-2--2-2-2-2-2-2-2--2-2-2-|
--3-3-3-3--3-3-3-3-3-3-3--3-3-3-|--0-0-0-0--0-0-0-0-0-0-0--0-0-0-|

--0-----0--0-0-0-0-----0--0-0-0-|--2-----2--2-2-2-2-----2--2-2-2-|
--1-1-1-1--1-1-1-1-1-1-1--1-1-1-|--3-3-3-3--3-3-3-3-3-3-3--3-3-3-|
--0-0-0-0--0-0-0-0-0-0-0--0-0-0-|--2-2-2-2--2-2-2-2-2-2-2--2-2-2-|
--2-2-2-2--2-2-2-2-2-2-2--2-2-2-|--0-0-0-0--0-0-0-0-0-0-0--0-0-0-|
--0-0-0-0--0-0-0-0-0-0-0--0-0-0-|--0-0-0-0--0-0-0-0-0-0-0--0-0-0-|
--0-0-0-0--0-0-0-0-0-0-0--0-0-0-|--0-0-0-0--0-0-0-0-0-0-0--0-0-0-|

--2-----2--2-2-2-2-----2--2-2-2-|--0-----0--0-0-0-0-----0--0-0-0-|
--3-3-3-3--3-3-3-3-3-3-3--3-3-3-|--0-0-0-0--0-0-0-0-0-0-0--0-0-0-|
--0-0-0-0--0-0-0-0-0-0-0--0-0-0-|--0-0-0-0--0-0-0-0-0-0-0--0-0-0-|
--0-0-0-0--0-0-0-0-0-0-0--0-0-0-|--2-2-2-2--2-2-2-2-2-2-2--2-2-2-|
--2-2-2-2--2-2-2-2-2-2-2--2-2-2-|--2-2-2-2--2-2-2-2-2-2-2--2-2-2-|
--3-3-3-3--3-3-3-3-3-3-3--3-3-3-|--0-0-0-0--0-0-0-0-0-0-0--0-0-0-|

--0-----0--0-0-0-0-----0--0-0-0-|--2-----2--2-2-2-2-----2--2-2-2-|
--1-1-1-1--1-1-1-1-1-1-1--1-1-1-|--3-3-3-3--3-3-3-3-3-3-3--3-3-3-|
--0-0-0-0--0-0-0-0-0-0-0--0-0-0-|--2-2-2-2--2-2-2-2-2-2-2--2-2-2-|
--2-2-2-2--2-2-2-2-2-2-2--2-2-2-|--0-0-0-0--0-0-0-0-0-0-0--0-0-0-|
--0-0-0-0--0-0-0-0-0-0-0--0-0-0-|--0-0-0-0--0-0-0-0-0-0-0--0-0-0-|
--0-0-0-0--0-0-0-0-0-0-0--0-0-0-|--0-0-0-0--0-0-0-0-0-0-0--0-0-0-|

--2-----2--2-2-2-2-----2--2-2-2-|--0-----0--0-0-0-0-----0--0-0-0-|
--3-3-3-3--3-3-3-3-3-3-3--3-3-3-|--0-0-0-0--0-0-0-0-0-0-0--0-0-0-|
--0-0-0-0--0-0-0-0-0-0-0--0-0-0-|--0-0-0-0--0-0-0-0-0-0-0--0-0-0-|
--0-0-0-0--0-0-0-0-0-0-0--0-0-0-|--2-2-2-2--2-2-2-2-2-2-2--2-2-2-|
--2-2-2-2--2-2-2-2-2-2-2--2-2-2-|--2-2-2-2--2-2-2-2-2-2-2--2-2-2-|
--3-3-3-3--3-3-3-3-3-3-3--3-3-3-|--0-0-0-0--0-0-0-0-0-0-0--0-0-0-|

--0-----0--0-0-0-0-----0--0-0-0-|--2-----2--2-2-2-2-----2--2-2-2-|
--1-1-1-1--1-1-1-1-1-1-1--1-1-1-|--3-3-3-3--3-3-3-3-3-3-3--3-3-3-|
--0-0-0-0--0-0-0-0-0-0-0--0-0-0-|--2-2-2-2--2-2-2-2-2-2-2--2-2-2-|
--2-2-2-2--2-2-2-2-2-2-2--2-2-2-|--0-0-0-0--0-0-0-0-0-0-0--0-0-0-|
--0-0-0-0--0-0-0-0-0-0-0--0-0-0-|--0-0-0-0--0-0-0-0-0-0-0--0-0-0-|
--0-0-0-0--0-0-0-0-0-0-0--0-0-0-|--0-0-0-0--0-0-0-0-0-0-0--0-0-0-|

--2-----2--2-2-2-2-----2--2-2-2-|--0-----0--0-0-0-0-----0--0-0-0-|
--3-3-3-3--3-3-3-3-3-3-3--3-3-3-|--0-0-0-0--0-0-0-0-0-0-0--0-0-0-|
--0-0-0-0--0-0-0-0-0-0-0--0-0-0-|--0-0-0-0--0-0-0-0-0-0-0--0-0-0-|
--0-0-0-0--0-0-0-0-0-0-0--0-0-0-|--2-2-2-2--2-2-2-2-2-2-2--2-2-2-|
--2-2-2-2--2-2-2-2-2-2-2--2-2-2-|--2-2-2-2--2-2-2-2-2-2-2--2-2-2-|
--3-3-3-3--3-3-3-3-3-3-3--3-3-3-|--0-0-0-0--0-0-0-0-0-0-0--0-0-0-|

--0-----0--0-0-0-0-----0--0-0-0-|--2-----2--2-2-2-2-----2--2-2-2-|
--1-1-1-1--1-1-1-1-1-1-1--1-1-1-|--3-3-3-3--3-3-3-3-3-3-3--3-3-3-|
--0-0-0-0--0-0-0-0-0-0-0--0-0-0-|--2-2-2-2--2-2-2-2-2-2-2--2-2-2-|
--2-2-2-2--2-2-2-2-2-2-2--2-2-2-|--0-0-0-0--0-0-0-0-0-0-0--0-0-0-|
--0-0-0-0--0-0-0-0-0-0-0--0-0-0-|--0-0-0-0--0-0-0-0-0-0-0--0-0-0-|
--0-0-0-0--0-0-0-0-0-0-0--0-0-0-|--0-0-0-0--0-0-0-0-0-0-0--0-0-0-|

--2-----2--2-2-2-2-----2--2-2-2-|--0-----0--0-0-0-0-----0--0-0-0-|
--3-3-3-3--3-3-3-3-3-3-3--3-3-3-|--0-0-0-0--0-0-0-0-0-0-0--0-0-0-|
--0-0-0-0--0-0-0-0-0-0-0--0-0-0-|--0-0-0-0--0-0-0-0-0-0-0--0-0-0-|
--0-0-0-0--0-0-0-0-0-0-0--0-0-0-|--2-2-2-2--2-2-2-2-2-2-2--2-2-2-|
--2-2-2-2--2-2-2-2-2-2-2--2-2-2-|--2-2-2-2--2-2-2-2-2-2-2--2-2-2-|
--3-3-3-3--3-3-3-3-3-3-3--3-3-3-|--0-0-0-0--0-0-0-0-0-0-0--0-0-0-|

--0-----0--0-0-0-0-----0--0-0-0-|--2-----2--2-2-2-2-----2--2-2-2-|
--1-1-1-1--1-1-1-1-1-1-1--1-1-1-|--3-3-3-3--3-3-3-3-3-3-3--3-3-3-|
--0-0-0-0--0-0-0-0-0-0-0--0-0-0-|--2-2-2-2--2-2-2-2-2-2-2--2-2-2-|
--2-2-2-2--2-2-2-2-2-2-2--2-2-2-|--0-0-0-0--0-0-0-0-0-0-0--0-0-0-|
--0-0-0-0--0-0-0-0-0-0-0--0-0-0-|--0-0-0-0--0-0-0-0-0-0-0--0-0-0-|
--0-0-0-0--0-0-0-0-0-0-0--0-0-0-|--0-0-0-0--0-0-0-0-0-0-0--0-0-0-| 

--2-----2--2-2-2-2-----2--2-2-2-|--0-----0--0-0-0-0-----0--0-0-0-|
--3-3-3-3--3-3-3-3-3-3-3--3-3-3-|--0-0-0-0--0-0-0-0-0-0-0--0-0-0-|
--0-0-0-0--0-0-0-0-0-0-0--0-0-0-|--0-0-0-0--0-0-0-0-0-0-0--0-0-0-|
--0-0-0-0--0-0-0-0-0-0-0--0-0-0-|--2-2-2-2--2-2-2-2-2-2-2--2-2-2-|
--2-2-2-2--2-2-2-2-2-2-2--2-2-2-|--2-2-2-2--2-2-2-2-2-2-2--2-2-2-|
--3-3-3-3--3-3-3-3-3-3-3--3-3-3-|--0-0-0-0--0-0-0-0-0-0-0--0-0-0-|

--0-----0--0-0-0-0-----0--0-0-0-|--2-----2--2-2-2-2-----2--2-2-2-|
--1-1-1-1--1-1-1-1-1-1-1--1-1-1-|--3-3-3-3--3-3-3-3-3-3-3--3-3-3-|
--0-0-0-0--0-0-0-0-0-0-0--0-0-0-|--2-2-2-2--2-2-2-2-2-2-2--2-2-2-|
--2-2-2-2--2-2-2-2-2-2-2--2-2-2-|--0-0-0-0--0-0-0-0-0-0-0--0-0-0-|
--0-0-0-0--0-0-0-0-0-0-0--0-0-0-|--0-0-0-0--0-0-0-0-0-0-0--0-0-0-|
--0-0-0-0--0-0-0-0-0-0-0--0-0-0-|--0-0-0-0--0-0-0-0-0-0-0--0-0-0-|

--2-----2--2-2-2-2-----2--2-2-2-|--0-----0--0-0-0-0-----0--0-0-0-|
--3-3-3-3--3-3-3-3-3-3-3--3-3-3-|--0-0-0-0--0-0-0-0-0-0-0--0-0-0-|
--0-0-0-0--0-0-0-0-0-0-0--0-0-0-|--0-0-0-0--0-0-0-0-0-0-0--0-0-0-|
--0-0-0-0--0-0-0-0-0-0-0--0-0-0-|--2-2-2-2--2-2-2-2-2-2-2--2-2-2-|
--2-2-2-2--2-2-2-2-2-2-2--2-2-2-|--2-2-2-2--2-2-2-2-2-2-2--2-2-2-|
--3-3-3-3--3-3-3-3-3-3-3--3-3-3-|--0-0-0-0--0-0-0-0-0-0-0--0-0-0-|

--0-----0--0-0-0-0-----0--0-0-0-|--2-----2--2-2-2-2-----2--2-2-2-|
--1-1-1-1--1-1-1-1-1-1-1--1-1-1-|--3-3-3-3--3-3-3-3-3-3-3--3-3-3-|
--0-0-0-0--0-0-0-0-0-0-0--0-0-0-|--2-2-2-2--2-2-2-2-2-2-2--2-2-2-|
--2-2-2-2--2-2-2-2-2-2-2--2-2-2-|--0-0-0-0--0-0-0-0-0-0-0--0-0-0-|
--0-0-0-0--0-0-0-0-0-0-0--0-0-0-|--0-0-0-0--0-0-0-0-0-0-0--0-0-0-|
--0-0-0-0--0-0-0-0-0-0-0--0-0-0-|--0-0-0-0--0-0-0-0-0-0-0--0-0-0-|

--2-----2--2-2-2-2-----2--2-2-2-|--0-----0--0-0-0-0-----0--0-0-0-|
--3-3-3-3--3-3-3-3-3-3-3--3-3-3-|--0-0-0-0--0-0-0-0-0-0-0--0-0-0-|
--0-0-0-0--0-0-0-0-0-0-0--0-0-0-|--0-0-0-0--0-0-0-0-0-0-0--0-0-0-|
--0-0-0-0--0-0-0-0-0-0-0--0-0-0-|--2-2-2-2--2-2-2-2-2-2-2--2-2-2-|
--2-2-2-2--2-2-2-2-2-2-2--2-2-2-|--2-2-2-2--2-2-2-2-2-2-2--2-2-2-|
--3-3-3-3--3-3-3-3-3-3-3--3-3-3-|--0-0-0-0--0-0-0-0-0-0-0--0-0-0-|

--0-----0--0-0-0-0-----0--0-0-0-|--2-----2--2-2-2-2-----2--2-2-2-|
--1-1-1-1--1-1-1-1-1-1-1--1-1-1-|--3-3-3-3--3-3-3-3-3-3-3--3-3-3-|
--0-0-0-0--0-0-0-0-0-0-0--0-0-0-|--2-2-2-2--2-2-2-2-2-2-2--2-2-2-|
--2-2-2-2--2-2-2-2-2-2-2--2-2-2-|--0-0-0-0--0-0-0-0-0-0-0--0-0-0-|
--0-0-0-0--0-0-0-0-0-0-0--0-0-0-|--0-0-0-0--0-0-0-0-0-0-0--0-0-0-|
--0-0-0-0--0-0-0-0-0-0-0--0-0-0-|--0-0-0-0--0-0-0-0-0-0-0--0-0-0-|

--2-----2--2-2-2-2-----2--2-2-2-|--0-----0--0-0-0-0-----0--0-0-0-|
--3-3-3-3--3-3-3-3-3-3-3--3-3-3-|--0-0-0-0--0-0-0-0-0-0-0--0-0-0-|
--0-0-0-0--0-0-0-0-0-0-0--0-0-0-|--0-0-0-0--0-0-0-0-0-0-0--0-0-0-|
--0-0-0-0--0-0-0-0-0-0-0--0-0-0-|--2-2-2-2--2-2-2-2-2-2-2--2-2-2-|
--2-2-2-2--2-2-2-2-2-2-2--2-2-2-|--2-2-2-2--2-2-2-2-2-2-2--2-2-2-|
--3-3-3-3--3-3-3-3-3-3-3--3-3-3-|--0-0-0-0--0-0-0-0-0-0-0--0-0-0-|

--0-----0--0-0-0-0-----0--0-0-0-|--2-----2--2-2-2-2--2-2-2-2-2-2-2-2-2-|
--1-1-1-1--1-1-1-1-1-1-1--1-1-1-|--3-3-3-3--3-3-3-3--3-3-3-3-3-3-3-3-3-|
--0-0-0-0--0-0-0-0-0-0-0--0-0-0-|--2-2-2-2--2-2-2-2--0-0-0-0-0-0-0-0-0-|
--2-2-2-2--2-2-2-2-2-2-2--2-2-2-|--0-0-0-0--0-0-0-0--0-0-0-0-0-0-0-0-0-|
--0-0-0-0--0-0-0-0-0-0-0--0-0-0-|--0-0-0-0--0-0-0-0--2-2-2-2-2-2-2-2-2-|
--0-0-0-0--0-0-0-0-0-0-0--0-0-0-|--0-0-0-0--0-0-0-0--3-3-3-3-3-3-3-3-3-|

--2--2---2-2-2-2--------|------------------||
--3--3---3-3-3-3--------|------------------||
--0--0---0-0-0-0--------|------------------||
--0--0---0-0-0-0--------|------------------||
--2--2---2-2-2-2--------|------------------||
--3--3---3-3-3-3--------|------------------||

Tags: , , , ,

Comments are closed.

Volver a Cancionero