Volver a Cancionero



Unicamente tú,(Acorde guitarra), (Letra Tablatura), cancionero Tuna, Cuatro Venezolano, Bolero


.

Unicamente tú

Autor: Manuel S. Acuña

Interpretan: Felipe Pirela

TunaEspaña (Don Dudo) www.TunaEspaña.es  

Ritmo:Bolero

Enlace Youtube: Pinche aqui para escuchar la cancion

.

Tuna Universitaria, Tuna de España, Concejal

 

B :[----------------------------------------------------------------- 
F#:[--------3-2-5-2-3-5-3-----------------3-------------------------- 
D :[-----2----------------3--2-0-2--0-2-3---3-2-0-2-0-2-0-2-0-2-0---- 
A :[-0-3--------------------------------------------------------3-2-0 

B :[----------------------------------------------------------------- 
F#:[--------3-2-5-6-5-6-5-6-5-3-2-3-------3---------6-5-6-5-6-5-3-2-3 
D :[-----2--------------------------0-2-3---3-2-0-2------------------ 
A :[-0-3------------------------------------------------------------- 



                      
Únicamente tú eres el todo de mí ser,

                               
porque al faltarme tu querer me muero de inquietud.

                                      
Sabes que para mí no hay otro amor como tu amor,

                          
y nada iguala la pasión que siento yo por ti.


                                                
Tú, de mi amor la preferida, eres única en mi vida, nomás tú.

                                    
Tú, eres alma de mi alma la que perturba la calma y da inquietud.


                       
Ven, que la dicha nos espera

                            
mas no tornes en quimera esta ilusión.

                   
Ven y juntemos nuestras vidas,

                     
para que vivan unidas en un solo corazón.

Tags: , , , , , , ,

Comments are closed.

Volver a Cancionero