Volver a Cancionero



Duerme Niño,Acorde Guitarra, Letra Tabladura, Cancionero Tuna,Villancico Ecuatoriano


.

Duerme Niño

Autor:

Interpretan: TunaEspaña

TunaEspaña (Don Dudo) www.TunaEspaña.es  

Ritmo: Tonada Ecuatoriana

Enlace Youtube:Pinche aqui para escuchar la cancion

.

TunaEspaña, Tunas Españolas, Tunas Universitarias, Universidad, Don Dudo,,Tuna Upr, Premio mejor solista, musica tuna

 

Tonada Ecuatoriana
Gracias Pibes Trujillo por este bello villancico

F - C - E7 - Am  2x

Introducción

E||---------------------------------------8----------|
B||--------------13----15----13----10----10----10----|
G||--------14----14----14----14----10----------10----|
D||--15----------------------------------------------|
A||--------------------------------------------------|
E||--------------------------------------------------|

---------------------------------------|-----------8-|
------------13----15----13-------------|------8------|
------14----14----14----14----14----12-|-8-----------|
15----------------------------15----14-|-------------|
---------------------------------------|-------------|
---------------------------------------|-------------|

       F
/duerme niño duerme a prisa
       C     E7    Am
que la brisa fría está/ 2X

       C
/ay no miras cual los hielos
             E7      Am
de los cielos vienen ya/ 2x

**Introducción**
       F
/duerme niño muy quietito
       C  E7     Am
di niñito duerme ya/ 2x

       C
/en el seno de tu gracia
            E7     Am
de tu gloria sin igual/ 2x

**Introducción**
      F
/has venido has nacido
      C       E7     Am
en diciembre en un portal/ 2x

         C
/has que duerma niño hermoso
      E7       Am
este humilde pecador/ 2x

**Introducción**
      F
/duerme niño duerme a prisa
     C      E7     Am
que la brisa fría está/ 2x

       C
/ay no miras cual los hielos
             E7      Am
de los cielos vienen ya/ 2x

Tags: , , , , ,

Comments are closed.

Volver a Cancionero