Volver a Cancionero



El puente de los suspiros,Acorde Guitarra, Letra Tabladura, Cancionero Tuna, Peru Criollo


.

El puente de los suspiros

TunaEspaña, Tuna España, Tuna Distrito Granada, Don Dudo,Don Mique, Don Pepelu, tuna medicina murcia

Autor: Chabuca Granda

Interpretan:Chabuca Granda, Los Embajadores criollos

Ritmo: Vals Criollo Peruano, Marinera

Don Dudo (TunaEspaña)

.

Introducción:


E|--------12-----|--------12----|-------9-12-12p9-11-
B|-----12----12--|-----11----11-|----10--------------
G|-s13-----------|-12-----------|-11-----------------
D|---------------|--------------|--------------------
A|---------------|--------------|--------------------
E|---------------|--------------|--------------------


E|-------12--|-------12------|-------9-12-12p9-11----
B|----12-----|----11------11-|----10-----------------
G|-13--------|-12------------|-11--------------------
D|-----------|---------------|-----------------------
A|-----------|---------------|-----------------------
E|-----------|---------------|-----------------------


E|-10p9----7-----5-----4---2-|-2-4-5s9---9s7-7-7s11-11-7s12-|-----
B|---------------------------|-------------9-9-9s12-12-9s12-|-----
G|-------7---7-6---6-4---4-2-|---------------------------13-|-----
D|---------------------------|------------------------------|-----
A|---------------------------|------------------------------|-s7--
E|---------------------------|------------------------------|-----

Canción:

Puentecito escondido, entre follajes y entre añoranzas
      E                                          B
Puentecito tendido sobre la herida de una quebrada
                                              E
Retoña el pensamiento, tus maderos
                     E7      A     Am
Se aferra el corazón a tus balaustres
                  E  F#m        B

Puentecito dormido entre el murmullo de la querencia
              E                               B
Abrazado a recuerdos, barrancos y escalinatas
                                      E
Puente de los suspiros, dejos a que guardes
                      E7             A      Am
En tu grato silencio, mi confidencia
               E     B         E     Em

Es mi puente un poeta que me espera
       B7                      Em
  Con su quieta madera cada tarde
Dm                           Am
Y suspira y suspiro, me recibo y le dejo
               D                     G
Solo sobre su herida, su quebrada
 C              F#                 B

Y…. las viejas consejas van contando
                  B7            Em
  De la injusta distancia del amante
Dm                 E7          Am
Sus arrestos vencidos, vencidos por los ficus
                                         Em
De enterradas raíces en su amada…
               B

  Puentecito escondido entre follajes y entre añoranzas
E                                                B
Puentecito tendido sobre la herida de una quebrada
                                             E
Puente de los suspiros, dejo a que guardes
                      E7              A    Am
En tu grato silencio
              E


Lam (varias veces9

E|---------5--------
B|-------5---5------
G|-----5-------5----
D|------------------
A|------------------
E|-s5---------------

MI con...


E|--------------------------------
B|--------------------------------
G|- ------------------------------
D|---------(7)--------------------
A|-(12)---------------------------
E|--------------------------------

Fidencia
      E

Al final se hace esto

E|-----------------------------|-----0---
B|-----------------------------|-----0---
G|- ---------------------------|-----1---
D|-----------------------------|-----2---
A|----2-3-4-3-2---2-3-4-3-2----|-----2---
E|-0------------0-----------0--|-----0---

.

 

Tags: , , , , , , , , , , , ,

Comments are closed.

Volver a Cancionero