Volver a Cancionero



Adios con el corazon,Bandurria ,Acorde Guitarra, Letra Tabladura, Cancionero Tuna


 

Adios con el corazon

TunaEspaña, Tuna España, Musica de Tuna, Cancionero de Tuna,

Autor: Popular

Interpretan: TunaEspaña

Tuna España (Don Dudo)     www.TunaEspana.com    www.TunaEspaña.es

Ritmo: Vals

Pais: España

 

 

D      Ebd     A7
Adiós con el corazón,
Em    A7        D
que con el alma no puedo.
D   Ebd      A7
Al despedirme de ti,
Em   A7        D
al despedirme me muero.

A7                D
Tú serás el bien de mi vida,
A7               D
tú serás el bien de mi alma,
A7            D
tú serás el pájaro pinto
B7      Em   A7       D
que alegre canta en la mañana.

D
Al amanecer se marcha el tren,
A7                D
se va mi amor, yo me voy con él. (BIS)

D  Ebd             A7
No hay quien pueda, no hay quien pueda,
Em  A7    D
con la gente marinera.
Ebd     A7  Em              A7
Marinera, pescadora, no hay quien pueda,
D
por ahora.

D                   Ebd         A7
Si te quieres casar con las chicas de aquí,
Em        A7               D
tienes que ir a buscar capital a Madrid,
Ebd       A7
capital a Madrid, capital a Madrid,
Em                    A7          D
si te quieres casar con las chicas de aquí.

Adiós con el corazón ...

TunaEspaña, Musica de Tuna

CIFRADOS

Adiós con el corazón, que con el alma no puedo. Al despedirme de ti, al despedirme me
|-0------0------0-0-------0--2--0--4--0--0--------0------0----0--0-----0---2--0-4--0--0--
|----2------2-------3-----------------------3--2------2----2--------3--------------------
|----------------------------------------------------------------------------------------
|
|
|----------------------------------0--------------------------------------------0--------
|-2------2------2-2-0-----2--3--2-----3--2--0-----2------2----2--2--0--2---3--2----3--2--
|----3------3----------------------------------3------3----3-----------------------------

muero. Tú serás el bien de mi vida, tú serás el bien de mi alma. Tu serás el pájaro
|---------0--2-4--4---4----5--4--2-0---0--2-4--4---4----5--4-2--0---0--2-4--4---4-5-4----
|--3--2----------------------------------------------------------------------------------
|----------------------------------------------------------------------------------------
|
|
|--------------0--0---0----2--0-------------0--0---0----2--0-------------0--0---0-2-0----
|--0------2--3-------------------3-2---2--3------------------3--2---2--3-----------------
|-----3----------------------------------------------------------------------------------

pinto que_alegre canta en la mañana.
|--2--0----2--4--2--0----0---2--0--------
|----------------------3----------3-2----
|----------------------------------------
|
|
|-------------0--------------------------
|--3--2----3-----3--2--0-2---3--2-0------
|-----------------------------------3----

Al amanecer se marcha_el tren, se va mi_amor yo me voy con él. (BIS)
|----------0---0--2----2-----0----0--2---2--0---4--2--0------------
|-2--2-2-3------------------------------------------------3--2-----
|------------------------------------------------------------------
|
|
|-----------------------------------------------0------------------
|--------0-2---2--3----3-----2----2--3---3--2------3--2---0--------
|-3--3-3-----------------------------------------------------3-----

No_hay quien pueda_a, no_hay quien pueda_a, con la gente_e marine_era, marine_era,
|---0------5----2--2-0----2------4----0--0-----0---4--0--0----0-2---------0-5-2-2-0------
|-------------------------------------------3--------------3------3-3-2------------------
|----------------------------------------------------------------------------------------
|
|
|----------2---------------------0-----------------0------------------------2------------
|---2-----------3--3-2----3-----------2--2--0--2------2--2-0--2-3-0-0-----2---3-3-2------
|---------------------------------------------------------------------3------------------

pescado_ora, no_hay quien pueda_a por ahora.
|--2--4-0-0------0------4----0--0----0--2--------
|-----------3---------------------3-------3-2----
|------------------------------------------------
|
|
|-----0-----------------0------------------------
|--3----2-2-0----2-----------2--2-0--2--3-0------
|-------------------------------------------3----

Si te quieres casar con las chicas de_aquí, tienes que_ir a buscar capital a Madrid,
|---------0--2---0-----2---0------2----0--------------------0---------0------0-----------
|--2--3------------2------------2----------3---0--2-----3------3--0-----3-0-----3--2-----
|----------------------------------------------------------------------------------------
|
|
|----------------------------------------------------------------------------------------
|-----0---2--3---2-----3---2------3----2---0------------0---2--0------2-0----2--0--------
|--3---------------3------------3--------------2--3---------------2-------2--------3-----

capital a Madrid, capital a Madrid, si te quieres casar con las chicas de_aquí.
|------0--2--0-------2-0----2--0-----------------0---------0----------0-------------
|--2-3----------2--------2--------3----0--2---3------3-0-------3----0------3---2----
|-----------------------------------------------------------------------------------
|
|
|-----------------------------------------------------------------------------------
|----0-2--3--2-------3-2----3--2--0-----------0--2---0-----2---0------2----0--------
|--3------------3--------3-------------2--3------------2------------2----------3----

 

Tags: , , , , , , , , ,

Comments are closed.

Volver a Cancionero