Volver a Cancionero



Asturianina ,Acorde Guitarra, Letra Tabladura, Cancionero Tuna


 

Asturianina

TunaEspaña, Pasacalles, Musica de Tuna, 07, BUENA, dism

Autor: Popular

Interpretan: TunaEspaña

Tuna España (Don Dudo)     www.TunaEspana.com    www.TunaEspaña.es

Ritmo: Habanero

España

 

 

C
Cruzando el mar
G7
por vez primera yo me vi,
Dm         G7
para ir a La Habana a buscar
C
el amor que per.

C
Un bergantín
G7
que con rumbo se dirigió
Dm         G7
a la patria querida del bien
C
que mi pecho año.

Era una asturianina
G7
más hechicera que un serafín.
Dm
Yo no he visto en el mundo
G7                 C
cosa más bella que aquel ru.

Dando un beso amoroso
C7                 F
cogió una rosa y vino hacia ,
C
vino hacia mí llorando
G7              C
y me dio un beso, beso de amor.

G7
Y en un velero
C
yo me embarqué,
G7
porque a mi Asturias
C
yo he de volver.

G7
Y hasta la muerte
C / C7
feliz se,
F
porque a mi Asturias,
G7
porque a mi Asturias,
C
yo he de volver.

INTRODUCCIÓN: 53  40  42  F, G7, C  (BIS)

CIFRADOS

|-7-5-3-0-0--2-3-0-0------3-7-7-5--7-9-2-3---7-5-3-0-0--2-3-0-0------3-7-7-5--7-8-2-3----
|--------------------3--3---------------------------------------3--3---------------------
|----------------------------------------------------------------------------------------
|
|
|--------------0------------3-3-2----0-------------------0------------3-3-2----0---------
|-0-1-3-1-1--3---1-1-0--0-3--------3---1-0--0-1-3-1-1--3---1-1-0--0-3--------3---1-0-----
|----------------------------------------------------------------------------------------

Cruzando_el mar, por vez primera yo me vi. Para ir a La_Habana_a buscar el amor que
|----------------------------3-5-3--0--3--2---2-5-3--0---3---2------2--0-----0-----------
|---0-0---1----3----3---3---------------------------------------3---------1----1---------
|-----------------------------------------------------------------------------------3----
|
|
|--------------------------------------------------------0-------------------------------
|--------------0-------------0-1-0--1--0--------1-0--1-------3--0---3--1-----1-0---------
|---1-1---3---------1---1-----------------3---3---------------------------3---------3----

perdí.  Y un bergantín ... (igual)
|---------
|--1--0---
|---------
|
|
|---------
|---------
|--0--1---

Era_una_asturianina más hechicera que_un serafín, yo no_he visto_en el mundo cosa más
|------------0-2--0--------0--2-0--------------------0---0----0---2---3---2--0--0-2--3---
|-3--3---3----------3--3----------3----3----1-0-1----------------------------------------
|----------------------------------------------------------------------------------------
|
|
|---------------------------------------------------------------------0--------------0---
|-0--0---0---1-3--1-0--0---1--3-1-0----0-------------1---1----1---3-------3--1--1-3------
|-------------------------------------------3-2-3----------------------------------------

bella que_aquel rubí. Dando_un beso_amoroso, cogió_una rosa_y vino_hacia mi. Vino_hacia
|--2--0----0-------------------------0--2-0---------0--2--0-----------------0---0--0---2-
|--------------3---2-3---3---3----3---------3---3------------3---3--1---3----------------
|----------------------------------------------------------------------------------------
|
|
|---------------------------------------------------0------------------------------------
|--3--1----1---0-----0---0---0----0--1--3-1-0---0---1--3--1--0---0----------1---1--1---3-
|------------------4------------------------------------------------3---1----------------

mi llorando y me dio_un beso, beso de_amor.
|--3---0-0-------3----7----7-5---7-8---2--3-----
|-----------3-3---------------------------------
|-----------------------------------------------
|
|
|--0------------------3----3-2-----0------------
|------1-1--0-0--3---------------3-----1--0-----
|-----------------------------------------------

Y_en un velero yo me_embarqué, porque_a mi_Asturias yo_he de volver. Y_hasta la muerte
|--7---5---3-3-2--5---3---0-----------------------------5----5--7--7----7----5--3--3---2-
|-----------------------------3---3----3----3---3-1--------------------------------------
|----------------------------------------------------------------------------------------
|
|
|--3---2---0-0----2---0---------------------------------2----2--3--3----3----2--0--0---2-
|--------------3----------1---0---0----0----0---0--------------------------------------3-
|-------------------------------------------------3--------------------------------------

feliz seré, porque_a mi_Asturias, porque_a mi_Asturias, yo_he de |--5-3---0-------------------0-0-----0----0----0---2-2-----------7---
|----------3---3----3----3----------------------------------3--------
|--------------------------------------------------------------------
|
|
|--2-0---------------------------------------------------------------
|--------1-0---0----0----0---1-1-----1----1----1---3-3------3----3---
|--------------------------------------------------------------------

volve___________________er.
|-5--------0-2-0-----0-2-3-----
|----3-3-3-------3-3-----------
|------------------------------
|
|
|------------------------------
|-1--0-0-0-1-3-1-0-0-1-3-0-----
|------------------------------

Tags: , , , , , , , , , , ,

Comments are closed.

Volver a Cancionero