Volver a Cancionero



Zamba de mi Esperanza,Acorde Guitarra, Letra Tabladura, Cancionero Tuna


 

Zamba de mi Esperanza

TunaEspaña, Don Dudo,Bautizo Tuna,  musica de tuna,Juntamento, Cancionero Tuna, Universidad de Murcia, 00, dism,  Universitaria

Fue la canción con la que alcanzó la fama Jorge Cafrune. Tema obligado para los guitarreros improvisados que animaban los asados de los años 60, y que todavía ahora se recuerda cuando hay que cantar “algo que sepamos todos”.

Autor: Luís H. Morales

Interpretan: Los Chalchaleros; Jorge Cafrune

Tuna España (Don Dudo)     www.TunaEspana.com    www.TunaEspaña.es

Ritmo: Zamba

 

 

TONO RE

ACORDES : RE MI7 LA7 SOL

PUNTEO :

PRIMERA ESTROFA

1|------------------2---------------2-2-5---2--------|
2|--3---------2-3-5---3-------2-3-5-------3---5-3-2--|
3|----2---2-4-------------2-4------------------------|
4|---------------------------------------------------|
5|---------------------------------------------------|
6|---------------------------------------------------|

1|--3-------3-2-------2-----------2-3-5--|
2|--------5-----3---3---5-5-3-5-3--------|
3|----4-4---------2----------------------|
4|---------------------------------------|
5|---------------------------------------|
6|---------------------------------------|

1|-7---7--7--7-7--------------------------|
2|---------------10-7---7-10-8-------7----|
3|--------------------7--------9-7-6---7--|
4|----------------------------------------|
5|----------------------------------------|
6|----------------------------------------|

SEGUNDA ESTROFA (igual a la primera)

ESTRIBILLO

1|----------------------------7-----------------5--|
2|--7-7-7-7-10-10-10-8-7-8-10---4-5-7-8-8-8-7-5----|
3|-------------------------------------------------|
4|-------------------------------------------------|
5|-------------------------------------------------|
6|-------------------------------------------------|

1|-------------------------------------------------------------|
2|-------------------7----------7-----------7-8-10-----7-8-10--|
3|--7-7--------6-7-9---7------7---9-9-7-9-7--------7-9---------|
4|------7--7-9--------------7----------------------------------|
5|-------------------------------------------------------------|
6|-------------------------------------------------------------|

1|-7---7--7--7-7--------------------------|
2|---------------10-7---7-10-8-------7----|
3|--------------------7--------9-7-6---7--|
4|----------------------------------------|
5|----------------------------------------|
6|----------------------------------------|

PRIMERA

RE
Zamba de mi esperanza,
               MI7 LA7
amanecida como un querer,
SOL                RE
sueños, sueños del alma         |
            LA7             RE  | BIS
que a veces mueren sin florecer |

RE
Zamba a ti te canto,
                    MI7  LA7
porque tu canto derrama amor,
  SOL           RE
caricia de tu pañuelo,        |
            LA7           RE  | BIS
que va envolviendo mi corazón |

ESTRIBILLO

  RE              LA7
Estrella tú que miraste,
                         RE
tú que escuchaste mi padecer,
  Sol             Re
estrella deja que cante,   |
         LA7            RE | BIS
deja que quiera como yo se |

SEGUNDA

   RE
El tiempo que va pasando,
                 MI7    LA7
como la vida, no vuelve más,
   SOL            RE
el tiempo me va matando, |
       LA7          RE   | BIS
y tu cariño será, será   |

   RE
Hundido en el horizonte,
                     MI7    LA7
soy polvarera que al viento va,
SOL            RE
zamba ya no me dejes,       |
          LA7           RE  | BIS
yo sin tu canto no vivo más |

ESTRIBILLO

  RE              LA7
Estrella tú que miraste,
                         RE
tú que escuchaste mi padecer,
  Sol             Re
estrella deja que cante,   |
         LA7            RE | BIS
deja que quiera como yo se |

 

 

TONO E

1------------------------------------------
2-----0-----0-------------------0----------
3--------1------0/1--1--1----------1/6-----
4------------------------------------------
5---------------0/2--2--2-----2----2/7-----
6---0--------------------------------------

1------------------------------------------
2------------------------------------------
34-----3/4---4-----2---1/2---2-------------
4------------------------------------------
55-----4/5---5-----2---1/2---2-------2-2-2-
6---------------------------------0--------

1----0-7---5--4/5---5---4--2/4---4----7-4-0
2---0--------------------------------------
3--2---------------------------------------
4-1----------------------------------------
5------------------------------------------
6------------------------------------------

1--------------------------------------------
2-7-4-0---------0/1--1--1----2--2—2/4--2--0--
3--------6-4-0-------------2----2—2/4--2--1--
4---------------0/2--2--2--------------------
5--------------------------------------------
6--------------------------------------------

1---7-7---11----9---7---5—4/5---5---4---2---0
2---9-9---12---10---9---7—6/7---7---5---4---0
3--------------------------------------------
4--------------------------------------------
5-------------------------------------------2
6--------------------------------------------

1------0------1-----2--------0---------------
2-----0-0-----0----0-0-------0---------------
3----1---1--------2---2------1---------------
4----------------------------2---------------
5-------------2--------------2---------------
6----------------------------0---------------

E
Zamba de mi esperanza,
                     B7
amanecida como un querer,
 A               E
sueño, sueño del alma,
             B7             E  E7    (BIS)
que a veces muere sin florecer.

 E
Zamba a ti te canto,
                         B7
porque tu canto derrama amor,
   A             E
caricia de tu pañuelo,
             B7            E  E7   (BIS)
que va envolviendo mi corazón.

    E             B7
Estrella tú que miraste,
                          E
tú que escuchaste mi padecer,

estrella deja que cante,
          B7             E  E7   (BIS)
deja que quiera como yo se.


Tags: , , , , , , , , , , ,

Comments are closed.

Volver a Cancionero