Volver a Cancionero



Perdoname Dios mio (Requinto) (Acorde guitarra) (Letra Tablatura) cancionero Tuna (Bolero)


 

 

Perdoname Dios mio

Autor:

Interpretan: Los Dandys

TunaEspaña (Don Dudo) www.TunaEspaña.es   www.TunaEspana.com

Ritmo: Bolero

Enlace Youtube: Pinche aqui para escuchar el Bolero

01 TunaEspaña Portada 2

 

 

 

Intro:
                   Dm
E --12-11-12-17-15-15-13-13-12-13--
B --13-12-13-19-17-17-15-15-13-15--
G ---------------------------------
             G  
E --10-9--10-15-13-13-12-12-11-12--
B --12-11-12-17-15-15-13-13-12-13--
G ---------------------------------
            F
E --8--7-8--13-12-12-10-10-8--10---
B --10-9-10-15-13-13-12-12-10-12---
G ---------------------------------
           E7                  Am
E -----12-12-12-12-10-10-10-10-8---
B --10-13-13-13-13-12-12-12-12-10--
G ---------------------------------

Am                        E7       Am
Perdoname dios mio por haberla engañado
                  G          F      E7  
yo se que soy culpable pero tengo razón
               Dm                       Am 
pero el amor es ciego y en las leyes del alma
                   E7                Am  
jamas hay nada escrito tampoco condicion

                Am           E7      Am  
Yo soy hombre casado y no debi enamorarla
              G           F      E7 
pero yo tengo alma y tambien corazón
               Dm                   Am 
perdoname dios mio y ayudame a olvidarla
                   E7                     Am
aunque es un sacrificio renunciar a ese amor

                   Dm
E --12-11-12-17-15-15-13-13-12-13--
B --13-12-13-19-17-17-15-15-13-15--
G ---------------------------------
             G  
E --10-9--10-15-13-13-12-12-11-12--
B --12-11-12-17-15-15-13-13-12-13--
G ---------------------------------
            F
E --8--7-8--13-12-12-10-10-8--10---
B --10-9-10-15-13-13-12-12-10-12---
G ---------------------------------
           E7                  Am
E -----12-12-12-12-10-10-10-10-8---
B --10-13-13-13-13-12-12-12-12-10--
G ---------------------------------

Am                           E7      Am  
Yo soy hombre casado y no debi enamorarla
              G           F      E7 
pero yo tengo alma y tambien corazón
               Dm                   Am 
perdoname dios mio y ayudame a olvidarla
                   E7                     Am
aunque es un sacrificio renunciar a ese amor

 

Tags: , , , , , , , , , , , , , , , , , , , , , ,

Comments are closed.

Volver a Cancionero