Volver a Cancionero



Limeña (Requinto original Trio Los Panchos)


Limeña

Autor: Augusto Polo Campos

Interpretan: Trio Los panchos

INTRO:
Clave: Do Mayor

e:——5-8-5——-5-8-5—–|—–5-7————7————|
B:—-6——-6—6——-6—|—6—–8—-0—8—8———-|
G:–5———–5————-|-7———9—-9——-9——–|
D:—————————-|———————————|
A:—————————-|———————————|
E:—————————-|———————————|

e:--------5-----------5-------|-------3-0-------0-3-------------|
B:-0---8----6---0---6---6-----|-0---6-----1---1-----------------|
G:---9--------7---7-------7---|---7---------0-------------------|
D:----------------------------|---------------------------------|
A:----------------------------|---------------------------------|
E:----------------------------|---------------------------------|
e:---0-0-3-0------------------|-------------0-------------------|
B:-----------1-3-3-6-3--------|----------1--1-------------------|
G:-0-------------------4-5----|--------0----0-------------------|
D:----------------------------|------2--------------------------|
A:----------------------------|--2-3----------------------------|
E:----------------------------|---------------------------------|

Comments are closed.

Volver a Cancionero