Volver a Cancionero



Albur De Amor,Acorde Guitarra, Letra Tabladura, Cancionero Tuna,xx


.

Albur De Amor

Tuna España, Cancionero tuna, El Rocio, 15

Autor: Alfonso Esparza Oteo

Interpretan: Antonio Aguilar, Hermanos Zaizar, David Zaizar

Ritmo:

Don Dudo (TunaEspaña)

[Tube]http://www.youtube.com/watch?v=SpLm648FKu0[/Tube]

 

.

e--------------------------------------------------------
B--------------------------------------------------------
G-------------2-2----------2/-2-2-2-4-4-5-5-2/-2---------
D-------4-4-2----------4-2-------------------------------
A-5-5-5----------5/-5-5--------------------------3-2-5-5-
E--------------------------------------------------------


D                A7         D
Yo como 'creído' me equivoqué
              A7
Triste es mi vida

Joven querida y ése albur
          D
yo lo jugué.

D                A7          D
Para que quiero vida sin honra
       D7        G
Si malamente jugué
       A7        D
Si me matan a balazos
        A7                  D
Que me maten que al cabo y qué.

D          A7
Albur de amor,
                  D
Me gustó Yo lo jugué
          A7
Como era pobre,
                     D
Yo mi vida la hipotequé

D          A7       D
Y todavía valor me sobra
             D7        G
Y hasta onde pude aposte
       A7            D
Si me matan en tus brazos
        A7               D
Que me maten  al cabo y qué.
D          A7
Albur de amor me gustó...

[Tube]http://www.youtube.com/watch?v=U00rAVwgcp0[/Tube]

OTRO TONO

e|-7-9--10-|--11---12---11--|-11-|-11-|-9--7--|-4-|
B|-9-10-11-|--12---14---12--|-12-|-12-|-10-9--|-5-|
G|---------|----------------|----|----|-------|---|
D|---------|----------------|----|----|-------|---|
A|---------|----------------|----|----|-------|---|
E|---------|----------------|----|----|-------|---|

e|-7-9--10-11--11-12--12-11--11-9--5-4-|
B|-9-10-11-12--12-14--14-12--12-10-7-5-|
G|-------------------------------------|
D|-------------------------------------|
A|-------------------------------------|
E|-------------------------------------|

e|------------------------------------|
B|------------------------------------|
G|-------------1----1-1-2-4---4-2-----|
D|-------1-2-4--------------------4-2-|
A|-2-2-4------------------------------|
E|------------------------------------|

Bb               F7        Bb
Yo como "creido" me equivoque
              F7
triste es mi vida

joven querida este albur
         Bb
yo lo jugue

Bb         F7       Bb
Y todavia valor me sobra
              Bb7      Eb
y hasta onde pude aposte
       F7        Bb
si me matan a balazos
        F7              Bb
que me maten al cabo y que.

Bb         F7
Albur de amor
                    Bb
me gusto y yo lo jugue
          F7
como era pobre
                     Bb
yo mi vida la hipoteque

Bb         F7       Bb
y todavia valor me sobra
             Bb7      D#
y hasta onde tuve aposte
       F7        Bb
si me matan a balazos
        F7              Bb
que me maten al cabo y que.

Bb         F7
Albur de amor
                  Bb
me gusto yo lo jugue
          F7
como era pobre
                     Bb
yo mi vida la hipoteque

Bb         F7       Bb
Y todavia valor m. .......

 

Tags: , , , , , , , , , , , , ,

Comments are closed.

Volver a Cancionero