Volver a Cancionero



El Triangulo (Requinto Los Tres Reyes) (Acorde guitarra) (Letra Musica)Tuna


El Triangulo

Autor:  Bobby Capo

Interpretan: Trio Los Reyes

Tuna España (Don Dudo)    www.TunaEspana.com     www.TunaEspaña.es

Ritmo: Bolero

Hay les va el Intro...

  A
e-------0-------------0--------------0-------------0-----------
B-----2---2---------2---2----------2---2---------2-------------
G---2-------2-----2-------2------2-------2-----2---------------
D--------------------------------------------------------------
A--------------------------------------------------------------
E-0-------------0--------------0-------------0-----------------

             F#m      D         E7      F#7      B7      E7           A
e-----0/--5-7-9/--7-9-10/--9-10-12/--9-7-6/-----------7-5-4-----------------
B-2-3----------------------------------------7-5-4/---------5-3-3-5-3-1/----
G---------------------------------------------------------------------------
D---------------------------------------------------------------
A---------------------------------------------------------------
E---------------------------------------------------------------

      D      G#7
e-5-4-3/--------------
B---------3-2-1-------
G---------------------
D---------------------
A---------------------
E---------------------

 A continuacion viene la parte mas rapida de el intro

        C#m                           E7
e-----------------------------9-10-11-12-10------------------
B-9-------------------9-10-12---------------12-9-------------
G---11-9----9-11-9-11----------------------------11-9--------
D--------12-------------------------------------------9------
A------------------------------------------------------------
E------------------------------------------------------------

    A      F#m           C#m     A7
 Estoy en medio de un triangulo
          D           B7        E7
 sin solucion ni siquiera justificacion
          F#m         G#7            C#m
 me enamore cuando la vi por primera vez
    D      B7        E7   D - C#m - Bm
 sabiendola  un imposible

      A       F#m        C#m       A7
 Tambien en medio de un triangulo
          D           B7                E7
 Ella quedo por que igual que yo se estremecio
          F#m       G#7            C#m
 comprometio su corazon y nunca penso
  D                 E7
 que pertenciendo a otro
    D                E7
 poner sus ojo en mi
 D               E7
 eso haria de nosotros
     D              E7    D        C#m
 culpables de convertir nuestro querer
 Bm       A         F#m        D
 en un triangulo, triangulo, triangulo
 E7          A  - F#m - D - E7
 nuestro querer

 Ahora viene la parte de el Interludio
 que tambien se toca rapido

  A                   F#m                   D      E7
e-9-7--------------7/--9-7--------------7/--9-7----9-7/------
B-----10-7-10-7-10---------10-7-10-7-10-------0-10---0--------
G------------------------------------------------------------
D------------------------------------------------------------
A------------------------------------------------------------
E------------------------------------------------------------

  A                   F#m                   D      E7
e-9-7--------------7/--9-7--------------7/--9-7----9-7------
B-----10-7-10-7-10---------10-7-10-7-10-------0-10---0------
G-----------------------------------------------------------
D-----------------------------------------------------------
A-----------------------------------------------------------
E-----------------------------------------------------------

   A      F#m           C#m     A7
 Estoy en medio de un triangulo
          D           B7        E7
 sin solucion ni siquiera justificacion
          F#m         G#7            C#m
 me enamore cuando la vi por primera vez
    D      B7        E7   D - C#m - Bm
 sabiendola  un imposible

      A       F#m        C#m       A7
 Tambien en medio de un triangulo
          D           B7                E7
 Ella quedo por que igual que yo se estremecio
          F#m       G#7            C#m
 comprometio su corazon y nunca penso
  D                 E7
 que pertenciendo a otro
    D                E7
 poner sus ojo en mi
 D               E7
 eso haria de nosotros
     D              E7    D        C#m
 culpables de convertir nuestro querer
 Bm       A         F#m        D
 en un triangulo, triangulo, triangulo
 E7          A  - F#m - D - E7
 nuestro querer

Esta es la introducción lo toca el requinto con capo en primer traste o con guitarra en sexto traste
pues la canción esta en Re#. Casi toda la cancion se toca arpegiando solo en una parte cambia el ritmo.

A# --------0------------0---------------0-------------0-------0---------------------
F  ------2---2--------2----2----------2---2---------2----2--3-----------------------
C# ----2-------2----2--------2------2-------2-----2---------------------------------
G# ---------------------------------------------------------------------------------
D# --0------------0---------------0-------------0-----------------------------------
A# ---------------------------------------------------------------------------------

A# --5--7--9----7--9--10----9--10--12-----9----9-------------2---2------------------
F  -----------------------------------------12---12--11--------5---5--4-------------
C# ---------------------------------------------------------------------------------
G# ---------------------------------------------------------------------------------
D# ---------------------------------------------------------------------------------
A# ---------------------------------------------------------------------------------

A# --7----7--------------------------------5---5------------------------------------
F  ----10---10--9-----------5---5------------8---8--7-----3---3---------------------
C# ----------------7--7--7----7----7--6---------------------6---6--5----------------
G# ---------------------------------------------------------------------------------
D# ---------------------------------------------------------------------------------
A# ---------------------------------------------------------------------------------

A# --4---4---------------0-----------9--10--11--12--10-------0----------------------
F  ----7---7--5--4--5--7---9--10--12-------------------12--9---3--0-----------------
C# ---------------------------------------------------------------------------------
G# ---------------------------------------------------------------------------------
D# ---------------------------------------------------------------------------------
A# ---------------------------------------------------------------------------------

Bueno estos son algunos acompañamientos de la canción.

sabiéndola un imposible

A# -------4-4-----4--------2-2------2------0-0------0--------------------------------
F  -----5-------5--------3--------3------2--------2-----0----------------------------
C# ---4-------4--------2--------2------1--------1------------------------------------
G# ----------------------------------------------------------------------------------
D# ----------------------------------------------------------------------------------
A# ----------------------------------------------------------------------------------

en un triangulo.................triangulo.................triangulo.......
A# ----------------5/9--7--5---------------2/5--3--2----------------2--2--2--0--2--0--
F  -----------------------------------------------------------------------------------
C# -----------------------------------------------------------------------------------
G# -----------------------------------------------------------------------------------
D# -----------------------------------------------------------------------------------
A# ----------------5/9--7--5---------------2/5--3--2----------------2--2--2--0--2--0--

Este es el intermedio de la canción, pueden tocarlo como tremolo o de forma punteada con los dedo índice
y medio de tu mano derecha, como te acomodes mejor, de cualquier forma se oirá bien, pero estos son los
trastes correctos donde debes pisar:

A# --9--7-7--5-5--2--5--7--9--7-7--5-5--2--5--7--9--7-----7--9--7---------------------
F  -----------------------------------------------------------------------------------
C# -----------------------------------------------------------------------------------
G# -----------------------------------------------------------------------------------
D# -----------------------------------------------------------------------------------
A# -----------------------------------------------------------------------------------

A# --9--7-7--5-5--2--5--7--9--7-7--5-5--2--5--7--9--7-----7--9--7-7-7-7-7-7/0---------
F  -----------------------------------------------------------------------------------
C# -----------------------------------------------------------------------------------
G# -----------------------------------------------------------------------------------
D# -----------------------------------------------------------------------------------
A# -----------------------------------------------------------------------------------
Y Otra Transcripcion seria esta
Intro
 D
E---------
A---------
D-7-----7-
G--7---7--
B---7-7---
E----5---- X3

   D              Bm           G        A       B       E     A    D
E-------------------------------------------------------------------
A-------------------------------------------------------------------
D-------------------------------------------------------------------
G-11-12--------------------------------------------------(12)--12-11
B------10---------------------------------12-10-9------------10-----
E--------10-12-14-12-14-15-14-15-17-14-12---------12-10-9-----------
   G      Abdim          F#m                     Em
E----------------------------------------------------------------
A----------------------------------------------------------------
D----------------------------------------------------------------
G--------12-11-10------------------------------------------------
B---13-12-----------12-10-9-10-9-10-9-10-9-10-12-----------------
E-10--------------9------------------------------9-12-17-15-14-12

     D          Bm              D7            G
Estoy, en medio, de un triangulo, sin solución,
       E           A
ni siquiera, justificación
       Bm             G#dim           F#m        G           E  A,G,F#m,Em
Me enamore cuando la vi por primera vez, sabiéndola, un imposible
    D         Bm         D        D7
También, en medio, de un triangulo,
       G             E               A
ella quedo por que igual que yo se estremeció
      Bm          G#dim            F#m   G                  A
Comprometió su corazón y nunca pensó, que perteneciendo a otro
 G                 A    G            A
Poner sus ojos en mi, eso haría de nosotros
G                 A      G       F#m Em         D      Riff 1
Culpables de convertir nuestro querer, en un triangulo,
Bm           G          A
Triangulo, triangulo, nuestro querer
ACORDES DEL REQUINTO: D, Bm, G, A El ritmo es facil

E-------------------------------------------------------------
A-------------------------------------------------------------
D-------------------------------------------------------------
G-------------------------------------------------------------
B------------12--12--------------12--12-----------------------
E--(14)-12-10--10--10-12-14-12-10--10--10-12-14-(12)-10-14-(12) X2

D         Bm        D       D7
Estoy en medio de un triangulo,
        G          E        A
sin solución, ni siquiera justificación
 Bm                 G#dim            F#m    G       E       (A)
Me enamore, cuando la vi por primera vez, sabiéndola un imposible
D           Bm        D        D7
También en medio de un triangulo,
     G             E               A         Cambio de ritmo
ella quedo, por que igual que yo se estremeció
         Bm         G#dim          F#m  G                A
Comprometió su corazón y nunca pensó, que perteneciendo a otro,
 G               A    G              A
Poner sus ojos en mi, eso haría de nosotros
G             A        G       F#m  Em       D       Riff 1
Culpables de convertir nuestro querer, en un triangulo,
 Bm          G       A             Riff 1
Triangulo, triangulo, nuestro querer,
D          Bm         G             A
Triangulo, triangulo, nuestro querer.

FINAL
E------------
A------------
D------------
G-14---14----
B----------15
E---17---14--

Riff 1
G---------------------------------
B----------------------8--10-10-10
E-14-12-10-10-9-7-7-7-7-7---------

Comments are closed.

Volver a Cancionero