Volver a Cancionero



Felicidad (Requinto) (Acorde guitarra) (Letra Musica)Tuna


 

Felicidad

Autor:   Armando Manzanero

Interpretan: TunaEspaña; Tuna Centralista (Colombia)

Tuna España (Don Dudo)     www.TunaEspana.com    www.TunaEspaña.es

Ritmo:  Bolero

Mejico

 

 

 

    A                   D
E-----------------------------------------------
A-----------------------------------------------
D-----------------------------------------------
G---9------9-----------11-------11--------------
B---10--10----10-------10---10-----10-----------
e---9-------------9----10--------------10-------

    A                   D
E-----------------------------------------------
A-----------------------------------------------
D-----------------------------------------------
G---9------9-----------11-------11--------------
B---10--10----10-------10---10-----10-----------
e---9-------------9----10--------------10-------

   A                        E7                 A
E-----------------------------------------------
A-----------------------------------------------
D-----------------------------------------------
G---9------9--------9--------------------10-----
B---10--10----10----10-------9------9-----9----7
e---9----------9-------------7------7----------5

   A      D
   Felicidad
           A             D
   hoy te vengo a encontrar
            C#m    B7       E7
   cuanto tiempo huiste de mi.

   A       D
   Felicidad
           A         D
   no te vuelvo a dejar
          C#m    B7       E7
   no podria vivir ya sin ti

            A         F#
   Hoy amanece y el sol
              D         E7
   tiene un raro esplendor
                A      F#
   escucho a viento pasar
            D        E7
   veo la luna brillar.

              A       A7
   Al mismo cielo lo miro
       D        Dm
   con otro color,
                A
   nada es nuevo
          E7        A
   solo que te conoci.

    A      D   A      D
   felicidad, felicidad,

 

Comments are closed.

Volver a Cancionero