Volver a Cancionero



Don Gato (Bandurria) (Acorde guitarra) (Letra Musica)Tuna


 

 

Don Gato

Autor: Popular cancion Infantil

Interpretan: Los Sabandeños (Arr. Elfidio Alonso)

Tuna España (Don Dudo)     www.TunaEspana.com    www.TunaEspaña.es

España

 

D                   A7 D  G                 D
Estaba el señor Don Gato sentadito en su tejado,
A7 D
marrama miau, miau, miau, sentadito en su tejado.

D               A7 D    G                  D
Ha recibido una cartaque si quiere ser casado,
A7 D
marrama miau, miau, miau, que si quiere ser casado.

D              A7  D   G                  D
Con una gatita blancasobrina de un gato pardo,
A7 D
marrama miau, miau, miau, sobrina de un gato pardo.

D                    A7 D 40 42 43 Gm               Dm
Con la emoción de la carta,        se ha caido del tejado,
A7 Dm
marrama miau, miau, miau, se ha caído del tejado.

Dm                 A7 Dm  40 42 43 Gm               Dm
Se ha roto siete costillas,         el espinazo y el rabo,
A7 Dm
marrama miau, miau, miau, el espinazo y el rabo.

Dm                  A7 Dm 40 42 43 Gm                  Dm
Ya lo llevan a enterraaar,         por la calle del pescado,
A7 Dm
marrama miau, miau, miau,  por la calle del pescado.

D                 A7 D    G                 D
Al olor de las sardinasDon Gato ha resucitado,
A7 D
marrama miau, miau, miau, Don Gato ha resucitado.

D               A7 D   G                    D
Por eso dice la gentesiete vidas tiene un gato,
A7 D (BIS)
marrama miau, miau, miau, siete vidas tiene un gato.

CIFRADOS

Estaba_el señor Don Gato,        sentadito_en su tejado marrama miau, miau, miau
|-0-----0------0--------------------2----2-------2--4-0-0----------0-----0-----0---------
|----2-------2-----2---0-------0-2-----3----3--------------3--2-3--2-----2-----2---------
|------------------------3---3-------------------------------------3-----3-----3---------
|
|
|---------------------------------------------------0--------------0-----0-----0---------
|-2-----2------2---------------0-2--3--0-3--0----3----2-2--0----0--2-----2-----2---------
|----3-------3-----3---2-3---3--------------------------------3----3-----3-----3---------

sentadito_en su tejado.
|--0--2-0--2----0-----------
|------------------2-0------
|----------------------3----
|
|
|---------------------------
|--2--3-2--3----2-----------
|------------------3-2-3----

. . .

Con la_emoción de la carta,       se_ha ca_ído del tejado, marrama miau, miau, miau
|--0-------0------0-------------------1------1----1---3-0-0------------0----0-----0------
|-------2-----2------2--0-------0-1--------3---3--------------3--1-3---1----1-----1------
|--------------------------3--3----------------------------------------3----3-----3------
|
|
|-----------------------------------------------------0----------------0----0-----0------
|--2-------2------2-------------0-1---3----0-3-0--3-----1-1------------1----1-----1------
|-------3-----3------3--2--3--3-------------------------------0----0---3----3-----3------
|----------------------------------------------------------------3-----------------------

se_ha ca_ído del tejado. Ya lo llevan a_enterra_ar,      por la calle del pescado
|---0----1-0-1--0-----------0------0-----0------------------1------1-----1---3--0-0------
|-------------------1-0--------1-----1-------1--0------0-1------3-----3------------------
|-----------------------3-------------------------3--3-----------------------------------
|
|
|----------------------------------------------------------------------------0-----------
|---1----3-1-3--1-----------1------1-----1-------------0-1--3---0--3--0--3------1-1------
|-------------------3-2-3------3-----3-------3--2-3--3-----------------------------------

marrama miau, miau, miau, por la calle del pescado.
|----------0-----0-----0-----0---1--0--1--0-------------
|--3--1-3--1-----1-----1----------------------1--0------
|----------3-----3-----3---------------------------3----
|
|
|----------0-----0-----0--------------------------------
|--0----0--1-----1-----1-----1---3--1--3--1-------------
|-----3----3-----3-----3----------------------3--2-3----

Al olor de las sardinas         Don Gato_ha resucitado marrama miau, miau, miau
|-0----0------0--------------------2------2------2-4-0-0----------0-----0-----0----------
|----2-----2------2--0-------0-2-------3-------3----------3--2-3--2-----2-----2----------
|----------------------3---3--------------------------------------3-----3-----3----------
|
|
|--------------------------------------------------0--------------0-----0-----0---------
|-2-----2-----2---------------0-2--3---0--3--0---3---2-2--0----0--2-----2-----2---------
|----3-----3------3--2-3---3---------------------------------3----3-----3-----3---------

Don Gato_ha resucitado.
|--0---2--0----2-0----------
|------------------2-0------
|----------------------3----
|
|
|----------------------------
|--2---3-2--3----2-----------
|------------------3-2-3-----

Por eso dice la gente          siete vidas tiene_un gato marrama miau, miau, miau
|--0----0----0--------------------2-----2-----2---4----0-0----------0-----0-----0--------
|-----2----2----2--0--------0-2------3----3-----------------3--2-3--2-----2-----2--------
|---------------------3---3-----------------------------------------3-----3-----3--------
|
|
|-------------------------------------------------0-----------------0-----0-----0--------
|--2----2----2---------------0-2--3--0--3--0--3--------2-2--0----0--2-----2-----2--------
|-----3----3----3--2--3---3------------------------------------3----3-----3-----3--------

siete vidas tiene_un gato.    (2ª)  tiene_un gato.
|--0--2--0-2---0---------------      --0---4----4-5----
|------------------2----0------      ------------------
|-------------------------3----      ------------------
|
|
|------------------------------      ------------------
|--2--3--2-3---2---------------      --2---------------
|------------------3----2-3----      ------3----2-3----

 

 

 

Comments are closed.

Volver a Cancionero