Volver a Cancionero



En mi viejo San Juan (Bandurria) (Acorde guitarra) (Letra Musica)Tuna


 

En mi viejo San Juan

Autor: Noel Estrada Suárez

Interpretan: Trio Los Condes; Felipe Pirela; Javier Solis; Los Tres Reyes; Trio Los Panchos

Tuna España (Don Dudo)     www.TunaEspana.com    www.TunaEspaña.es

Ritmo: Bolero

Puerto Rico

 

 

E           F#m       G#m
En mi viejo San Juan cuántos sueños for
C#7         F#m
en mis noches de infancia.
B7
Mi primera ilusión y mis cuitas de amor
E
son recuerdos del alma.

Una tarde partí hacia extraña nación,
E7          A   Am
pues lo quiso el destino.
E        C#7         F#m
Pero mi corazón se quejunto al mar
B7        E   54, 52, 50, 64, 62, 60, 60, 61
en mi viejo San Juan.

61 F#m          B7                  E                       60, 61
Adiós (adiós, adiós), Borinquén querido (tierra de mi amor),
61 F#m          B7                  E
Adiós (adiós, adiós), mi diosa del mar (la reina del palmar).
E7        A Am
Me voy (ya me voy), pero un a volve,
E       C#7      F#m
a buscar mi querer, a soñar otra vez,
B7        E    54, 52, 50, 64, 62, 60
en mi viejo San Juan.

E         F#m     G#m
Pero el tiempo pa y el destino bur
C#7       F#m
mi terrible nostalgia.
B7
Y no pude volver al San Juan que yo a,
E
pedacito de patria.

Mi cabello blanqueó, ya mi vida se va,
E7        A    Am
ya la muerte me llama,
E     C#7     F#m
y no quiero morir alejado de ti
B7       E   54, 52, 50, 64, 62, 60, 60, 61
Puerto Rico del alma.

Adiós...

INTRODUCCIÓN: 64, 54, C#7, 54, 62, F#m, 62, 50, 51, 52, B7, 62, 52, Si 7, 52, 60, E //
(1ª) 42, 42, 41, 40, C#7 // (2ª) 54, 52, 50, 64, 62, 60

CIFRADO

|---------------------------------7-6-5-4-----------0-------0-4-2-2-2-1-0---4-2-0--------
|-----4-2-4-2---0---------2-0-2-0-------------4-2-4---4-2-4---------------4-------4-2-0--
|-0-0---------2---2-4-0-0-----------------0-0--------------------------------------------

En mi viejo San Juan cuantos sueños forjé en mis noches de_infancia mi primera_ilusión
|------------------------2--0-------------------0---2--0---------------------0--------0--
|--------4--2--0---4------------4--2---0--4-4---------------4---0--2------------4--2-----
|-0---0----------------------------------------------------------------0---0-------------

y mis cuitas de_amor son recuerdos del alma Una tarde partí hacia_extraña nación pues
|--------0----------0---------0---2---0--0---------2--0-----2-----0-----2-0-----2--------
|-2--4------4----2------2---4---------------4------------4-----4-------------4------4----
|---------------------------------------------0-0----------------------------------------

lo quiso_el destino pero mi corazón se quedó junto_al mar en mi viejo San Juan.
|-0--2---0-------2-0-------0--2-0--------------0-------------------------------4-2-0-----
|-------------4-------2-4---------4---0---2-4------4----2------0--2--0------0--------4-2-
|----------------------------------------------------------4------------4----------------

Adiós                 Borinquen querido                       Adiós
|----------------------------------------------------------------------------------------
|-0--0---0--2-------------------2-2---0------0---------------------0---0--2--------------
|------4----------------------------------4----0---------------------4-------------------
|
|             Adiós adiooooooooooooooooooooooos  tierra de mi_amor
|-------------4--2--4--2----------0------------------------------------------------------
|--------------------------------------------4----4---2--0---2--4------------------------
|----------------------------------------------------------------------------------------

mi diosa del mar                      Me voy           pero_un dí_a volveré
|-----------------------------------------------------------------------0----2-0-----2-0-
|-------------2--2--0--2---4---------------------------4-------------4------------4------
|---------------------------------------------------0------------------------------------
|
|
| Adiós adiooooooooooooooooos  la reina del palmar         Ya me vo
|-4--2--4--2------0-----------------------------------------7--6--5--------------------4-
|--------------------------4----4--4--2--0---2--4----------------------------------------
|----------------------------------------------------------------------------------------

a buscar mi querer a soñar otra vez en mi viejo San Juan.
|-------0---2---0------------0--------------------------------
|-2--4------------4--0--2-4-----4--2------0--2--0------0------
|-------------------------------------4------------4----------

 

Comments are closed.

Volver a Cancionero