Volver a Cancionero



Estudiantina Madrileña,Bandurria ,Acorde Guitarra, Letra Tabladura, Cancionero Tuna


 

Estudiantina Madrileña

Autor: Padilla / Muñoz Román

TunaEspaña, Catedral Murcia definit, cancionero tuna, musica de tuna

Interpretan: TunaEspaña

Tuna España (Don Dudo)     www.TunaEspana.com    www.TunaEspaña.es

Ritmo: pasacalles

España

[Tube]http://www.youtube.com/watch?v=mYYl5yjmpzg[/Tube]

 

Em
Por la calles de Madrid
B7
bajo la luz de la luna,
Am / B7
de Cascorro a Chambe,
Em
pasa rondando la tuna.

E7
Su alegría y buen humor
Am
son en la noche abrileña
Em                B7
como un requiebro de amor (de amor, de amor)
E
a la mujer madrileña.

E
Y asómate, asómate al balcón
B7
carita de azucena,
F#m                     B7
y así verás que pongo en mi canción
E   A / B7 / E
suspiros de verbena.

E7
Adórnate ciñéndote un mantón
A
de la China, la China,
Am                B7
asómate, asómate al balcón
E
a ver la estudiantina.

G#                      A           G#
Clavelitos rebonitos del jardín de mi Madrid,
B
madrileña no nos plantes
C         B
porque somos estudiantes,
C          B
y cantamos para . (Modulación a G)

G
Y asómate, asómate al balcón
D7
carita de azucena,
Am                      D7
y así verás que pongo en mi canción
G / C / D7 / G
suspiros de verbena.

G7
Adórnate ciñéndote un mantón
C
de la China, la China,
Cm                D7
asómate, asómate al balcón
G
a ver la estudiantina.
INTRODUCCIÓN: G, D7, G, E7, Am, G, D7, G, B7
CIFRADOS

|-5-5-5-3--2-2-2-2-0------------------------3-3-3-2--0-0-0-0---------------------0-------
|---------------------3-3-3-3-2--0---0-3--2------------------3--2-2-2-2-0----0-2---3-----
|----------------------------------3---------------------------------------3-------------
|
|
|-2-2-2-0-----------------------------------0-0-0----------------------------------------
|----------3-3-3-3-2--0-0-0-0----------0----------3--2-2-2-2-0---------------------------
|-----------------------------3--1-0-1----3---------------------3-3-3-3-1--0-1-3-3-3-----
|-5-5-5-3--2-2-2-2-0-------------------2--0----0-2-3-5--2----0-------------0-2-3--2------
|---------------------4-4-4-4-2--0-2-4------4-------------4----2--4-4-2--4----------2----
|----------------------------------------------------------------------------------------
|
|
|-2-2-2-0------------------------------------------0-2-------------------------0---------
|----------4-4-4-4-2--0-0-0-0---------------0--2-4------3-0--2------0----0-2-3----2------
|-----------------------------3---1---0---1--------------------3--3---4-------------4----
Por las calles de Madrid                bajo la luz de la luna               de
|-2---2--2---1---2--1---2--------2-1-2-1-2---------------0------0--2-0--0-0-2-3-2-0---0--
|---2----------------------3--0------------3-0---0-2--3------3---------------------------
|----------------------------------------------------------------------------------------
|
|
|-----------------------------------------------------------------------------0----------
|-2---2--3---2---3--2---3--0-----3-2-3-2-3-0----------0--2---0--2--3-2--2-2-3---3-2---2--
|---4-------------------------0--------------0---0-3-------------------------------------
Cascorro_a Chamberí              pasa rondando la tuna               Su_alegría_y buen
|----0--------0-------------------------0--2--3--5--3-2--3-2-3-2-3-2----2--0--2-0---2----
|-3------3-------3-2--3-2-3-2-3-2--2-3---------------------------------------------------
|----------------------------------------------------------------------------------------
|
|
|----------------------------------------------------------------------------------------
|-0--2---0----2--0----0---0---0----2-0--2--2--0--2--2-0--0-0-0-0-0-0----3--2--3-2---3----
|------------------4----4---4---4--4-----------------------------------------------------
humor             son en la noche_abrileña              como_un requiebro de_amor
|-0--------0-2-0--------------2---0---2-5-3--3-3-2-0-2-3-------------0----------2--------
|---4--4-4-------4--0--2---4------------------------------2--2----3------3---2-----3-2-0-
|----------------------------------------------------------------------------------------
|
|
|---------------------------------------2-0--0-0-------0---------------------------------
|-2-0--0-0-2-4-2-0---------0--4---2---4----------3-2-3------------0--2---0------3--0-----
|-------------------3--3----------------------------------3--3---------------3-------3-1-
a la mujer madrileña. Y_asómate y_asómate_al balcón carita de_azucena
|--------------------------2--0---2-----0-0--0----------------------------3-2-0----------
|---------0-2---0----2-0--------4----4------------2--4---2-0----------0---------4-2-4-2--
|-4-4--4-----------4-----------------------------------------4---2--0---4----------------
|
|
|-------------------------------------------------------------------------0--------------
|--------------------------4--2-0-4--0--2-2--2-------0----------------------4-2-0---0----
|-0-0--0--1-4---1--0-0-0--------------------------4------4-2-0--------2-0---------4---4--
|----------------------------------------------------------------3--2--------------------
y_así verás que pongo_en mi canción suspiros de verbeeeeena               Adórnate
|------3--2--0-3----0--2---2----2------0----------------------------0-3-2-2-1-2-2-0----2-
|-0--------------------------------4-------4--2-0---------0-------4------------------4---
|---4-----------------------------------------------4--2----4-2-0------------------------
|
|
|------0-------0------------------------------------------------------0------------------
|---------4--2------2--4---4----4--0---2---0----------------------0-2---4-4-2-4-4-2--0-4-
|-2-0-----------------------------------------4-2---0-----2-0---0------------------------
|------------------------------------------------------3------3--------------------------
ciñéndote_un mantón de la China la China              asómate asómate_al balcón a ver
|---0--0--0------------------------------------------0-0-----0---------------------------
|-4------------2--4---2--0---4-2--0---4-2--2-2-1-2-4-----4-2---2-4-4--4----0--2--0-------
|-----------------------------------------------------------------------------------4----
|
|
|----------------------------------------------------------------------------------------
|-0-2--2--2-------0----------0--------0-------------0-2-2-0---2---0-0--0-----------------
|--------------4------4--2-----4--2------4--4-4-4-4---------4---4-----------2--4--2--0---
la_estudiantina. Clavelitos rebonitos del jardín de mi Madrid, madrileña no nos plantes
|-------------------------------------------------------------------0-2-2--2--2----2--0--
|------------2-0----0-2-4-4---4-4-4-2---0-------------0--2--4----4-----------------------
|--0---2-4----------------------------------4--2---4-------------------------------------
|
|
|-----------------------3-3---3-3-3-3---3---3--0---0--0--0--3---------2-2--2--2----2--2--
|-------------------0---4-4---4-4-4-4---4---4--0---0--0--0--4----0--2-2-2--2--2----2--2--
|--0---2-4---4-0------4-4-4---4-4-4-4---4---4--2---2--2--2--4---------4-4--4--4----4--4--
porque somos estudiantes y cantamos para ti. Y_asómate y_asómate_al balcón carita
|---------------------------------------0--2---5--3-2-5--2--3-3--3----0--2---0-----------
|-3---2--3-2--0----0------0--2--3-2---3----------------------------------------3-2-------
|----------------4-----4-----------------------------------------------------------------
|
|
|-2---2--3-3--3--3-3---3-----------------------2--0---2-----0-0--0-----------------------
|-2---2--0-0--0--0-4---4--0--0----------------------3----3------------2--3---2-0---------
|-4---4------------4---4--------3-3---1-1--4-------------------------------------4-------
de_azucena                     y_así verás que pongo_en mi canción suspiros de
|------------7-5-3-2-0-2-0-------7--5--3-7----3--5---5----5--2---2---2--0----------------
|--0----3-2----------------3-2--------------------------------------------3---2----------
|-----3----------------------------------------------------------------------------------
|
|
|------------3-2-0---------------3--2--0-3----0--2---2----2------0-----------------------
|-------0----------3-2-3-2-0---------------------------------3-------3--2-0--------------
|--1--0---3------------------3------------------------------------------------3----------
verbeeeeena                Adórnate ciñéndote_un mantón de la China la China
|------------2-3-7-5-5-4-5--5-3--2-5--2-3--3--3----0--2---0------2-0------2-0--0-0---0-2-
|-0--3-2-0---------------------------------------------------3--------3------------4-----
|----------4-----------------------------------------------------------------------------
|
|
|--------------0-3-2-2-0-2--2-0----2----0--0--0------------------------------------------
|----0-------3-------------------3----3------------2--3---2--0---3-2--0---3-2--2-2-0-2-3-
|-1----3-1-0-----------------------------------------------------------------------------
asómate asómate_al balcón a ver la_estudiantina.
|-3-3-2-0-3-0-2-2--2-------0--------------------0------5-5-5-3--2-2-2-2-0----------------
|-----------------------3-----3--2--------0-2-----3------------------------3-3-3-3-2-----
|-------------------------------------3--------------------------------------------------
|
|
|-0-0-----0--------------------------------------------2-2-2-0---------------------------
|-----3-2---2-3-3--3----0--2--0-----------------0---------------3-3-3-3-2--0-0-0-0-------
|--------------------------------3----0---1-3-----3--------------------------------3-----
|------------3-3-3-2--0-0-0-0---------------------0-----5-5-5-3--2-2-2-2-0---------------
|-0---0-3--2------------------3--2-2-2-2-0----0-2---3-----------------------4-4-4-4-2----
|---3---------------------------------------3--------------------------------------------
|
|
|------------0-0-0--------------------------------------2-2-2-0--------------------------
|-------0----------3--2-2-2-2-0----------------------------------4-4-4-4-2--0-0-0-0------
|-1-0-1----3---------------------3-3-3-3-1--0-1-3-3-3-------------------------------4----
|-------2--0----0-2-3-5--2----0-------------
|-0-2-4------4-------------4----2--4----4---
|-------------------------------------4-----
|
|
|-------------------0-2---------------------
|------------0--2-4------3-0--2-------------
|--1---0---1--------------------3--3----3---
|-------------------------------------3-----

 

Tags:

Comments are closed.

Volver a Cancionero