Volver a Cancionero



Naranjitay,Bandurria,Acorde Guitarra, Letra Tabladura, Cancionero Tuna, Popular


 

Naranjitay

TunaEspaña,Carlos Espinosa, Don Dudo, Insignia de Oro, Rector Universidad, CRUE,02

Autor: Tito Velez (popular; Tradicional)

Interpretan: Trio Los Delfines, Trio Siboney, Lucho Barrios,Los Cantores de Quilla Huasi,CHARAQUENA DRA

 

 

Tuna España (Don Dudo)      www.TunaEspaña.es

Ritmo: Huayno

[Tube]https://www.youtube.com/watch?v=va3DxxxTeGk[/Tube]

 

 

Em          B7            Em
Naranjitay, pinta y pintitay,
B7            Em
Naranjitay, pinta y pintitay.
Am
he de robarte una cinta
G
si no es esta nochecita
B7                  Em
mañana por la mañanita.

Em           B7        Em
A los lejos, se te divisa,
B7        Em
A los lejos, se te divisa,
Am
la punta de tu enagüita,
G
la boca se me hace agüita
B7                  Em
y el corazón me palpita.

Em            B7        Em
Tus hermanos, mis cuñaditos,
B7        Em
tus hermanas, mis cuñaditas,
Am
tu papá será mi suegro
G
tu mamá será mi suegra
B7                      Em
y tú la prenda más querida.
B7                      Em
y tú la prenda más querida.
B7                      Em / B7 / Em
y tú la prenda más querida.

TunaEspaña, Don Dudo,Carlos Espinosa, Insignia de Oro, Rector Universidad, CRUE,03.

[Tube]https://www.youtube.com/watch?v=urRByPsG2ns[/Tube]

CIFRADOS

Em                      D7          G     Em                     B7          Em
|-2-7-2-7-2-0--------------------0-7-2-2---2-7-2-7-2-0------------------0-2-------------
|-------------3-2-0---0----0-2-3----------------------3-2-0---0---0-2-3-----3-0-0-------
|-------------------4----3----------------------------------4---------------------------

D7            G     D7            G     Em                     B7          Em  B7 Em
|-0-5-0-5-0-0-5-2-2---0-5-0-5-0-0-5-2-2---2-7-2-7-2-0------------------0-2--------------
|-----------------------------------------------------3-2-0---0--0-2-3-----3-0-0-3--0-0-
|-----------------------------------------------------------4---------------------------

G       D7      G  G       D7      G  C           G           B7            Em
|-------2-5-3-2-0----------2-5-3-2-0----7-7-7-7-9-7-5-5-5-5---0-2-2-3-2-0---------------
|---3-3-----------3----3-3-----------3----------------------3-------------3-2-0-0-------
|-3------------------3------------------------------------------------------------------

C           G           B7             Em B7 Em B7 Em
|-7-7-7-7-9-7-5-5-5-5---0-2-2-3--2-0-------------------------
|---------------------3--------------3-2-0--3--0--3--0-0-0---
|------------------------------------------------------------

D7      G        B7      Em D7      G        B7      Em        D7          G
|-5-3-2-0-2----0-1-2-0--------5-3-2-0-2----0-2-7-0-------------------0-----0------------
|------------3---------3-2-0-------------3---------3-2-0---3-2-0---2-----2---3-3-3-3----
|----------------------------------------------------------------3-----3----------------
|
|
|-0-------2--------0-------2--0-------2--------0-------2--------------------------------
|-2-------3--------2-------0--2-------3--------2-------0---0---------2-----2------------
|-3-------0--------0-------0--3-------0--------0-------0-----3-1---1-----1---0-0-0-0----
|----------------------------------------------------------------3-----3----------------

B7            Em          D7          G           B7            Em B7 Em B7 Em
|-2-2-2-2-3-2-0---------------------0-----0---------2-2-2-2-3-2-0-----------------------
|---------------3-2-0-0---3-2-0---2-----2---3-3-3-3---------------3-2-0--3--0--3--0-0-0-
|-------------------------------3-----3-------------------------------------------------
|
|
|---------0-------------------------------------------------0---------------------------
|-3-3-3-3---3-2-0---------0---------2-----2---------3-3-3-3---3-2-0-----0---0-----------
|-----------------4-0-0-----3-1---1-----1---3-3-3-3-----------------4-0---0---0-0-0-----
|-------------------------------3-----3-------------------------------------------------

Naranjitay pinta_y pintitay Naranjitay pinta_y pintitay. He de robarte_esa cinta si
|------0-2---0---0---2--0----------0-2---0---0---2--0------3--3--3-3---3--3--3--3--2----
|-3-3---------------------3---3-3---------------------3---------------------------------
|---------------------------------------------------------------------------------------
|
|
|---------------------------------------------------------------------------------------
|-0-0--2-3---2---2---3--2-0---0-0--2-3---2---2---3--2-0----0--0--0-0---0--0--0--0--3----
|---------------------------------------------------------------------------------------

no_es esta nochecita mañana por la mañanita.
|--2---2--2--2--2-2-2--0-0-0--0------2-2-0-----
|---------------------------------3--------3---
|----------------------------------------------
|
|
|----------------------------------------------
|--3---3--3--3--3-3-3--2-2-2--2---0--3-3-2-0---
|----------------------------------------------

 

.TunaEspaña, Don Dudo,Carlos Espinosa, Insignia de Oro, Rector universidad, CRUE,conferencia,01

 .

[Tube]https://www.youtube.com/watch?v=zZN7qOHcqPk[/Tube]

.

Tags: , , , , , , , ,

Comments are closed.

Volver a Cancionero