Volver a Cancionero



Serenata Tapatia,Bandurria,Acorde Guitarra, Letra Tabladura, Cancionero Tuna


Serenata Tapatia

Autor: Cortázar / Esperón

Interpretan: Pedro Infante, Jorge Negrete, Los Tres Ases, Hermanos Michel, Javier Solis, Placido Domingo

Tuna España (Don Dudo)     www.TunaEspana.com    www.TunaEspaña.es

Ranchera

Mejico

Enlace Youtube: Pinche aqui para escuchar la cancion

.

TunaEspaña, Catedral Murcia, cancionero tuna, virgen de la fuensanta, Tuna Universitaria, canciones de tuna

 .

 C     G7       C
Mujer abre tu ventana
            F         G7
para que escuches mi voz,

te está cantando el que te ama
                    C
con el permiso de Dios.

      C      G7           C
Y aunque la noche esté oscura,
     C7                F
y aquí no hay ninguna luz,
          G7        C
con tu divina hermosura
       G7         C
la iluminas toda tú

 D7                   G
Yo te juro que ni el sol,
    D7             G
la luna ni las estrellas,
    F       G7   C
juntitas toditas ellas,
       G7         C
la iluminan como tú.

D7                G
Tú iluminaste mi vida,
    D7            G
por eso mujer querida,
    F          G7     C
te canto esta noche azul,
      G7           C
por eso vengo a robarte,
      G7         C
un rayito de tu luz.

D7                   G
Yo te juro que ni el sol,
    D7             G
la luna ni las estrellas,
    F       G7   C
juntitas toditas ellas,
       G7         C
la iluminan como tú.

D7                G
Tú iluminaste mi vida,
    D7            G
por eso mujer querida,
    F          G7     C
te canto esta noche azul,
      G7           C
por eso vengo a robarte,
      G7         C
un rayito de tu luz.

 

CIFRADOS BANDURRIA

Mujer abre tu ventana para que_escuches mi voz, te_está cantando_el que te_ama, con el
|-----------------------------------0--0------2---------2--2--2---2-----0---3--2---0--0--
|--0-3--3--0-----0--3-0--3-3----3----------3--------3------------------------------------
|-------------3--------------------------------------------------------------------------
|
|
|---------------------------------------------------------------------------0------------
|----0--0-----------0----0-0----0---0--1---0--3-----0---3--3--3---3-----1------3---1--1--
|--1-------1--0--1----1------------------------------------------------------------------
permiso de Dios. Y_aunque la noche_esté_oscura, y_aquí no_hay ninguna luz, con tu
|-----3------------------------------------------------3------------0-1--0----0---0------
|--3----3--1---0----0-----3--0--0--------0---3-0---3-------3-----3-----------------------
|-----------------------------------3----------------------------------------------------
|
|
|----------------------------------------------------------------------------------------
|--0--0-0-----------------0------------------0-----0---0---0-----0--1-3--1----1---1------
|----------3---1----1--------1--1---0----1-----1-----------------------------------------

 

divina_hermosura la_iluminas toda tú_ú, con tu divina_hermosura la_iluminas toda tú.
|--2-5--3----0-0-----3----------2----------0---0--2-5--3----0-0-----3----------2-5--3----
|----------------3------3-3-1-----3--1-0------------------------3------3-3-1-------------
|----------------------------------------------------------------------------------------
|
|
|----2--0------------0------------------------------2--0------------0--------------------
|--3---------1-1-0------0-0-----3-0--------1---1--3---------1-1-0------0-0-----3-1--0----
|---------------------------3--------3-2-----------------------------------3-------------
Yo te juro que ni_el Sol la Luna ni las estrellas juntitas toditas ellas iluminan como
|--5--5--5-7---5---3----2---2--5-5--7--5--5---3--2---2--0-0-----0-2--3-------3-2-5---2---
|-------------------------------------------------------------3---------3--3-----------3-
|----------------------------------------------------------------------------------------
|
|
|---------------------------------------------0------------------------------------------
|--------------0---2----3--------------0--2------3---3--1-1---0-1-------0--0-3-3-3---3-0-
|--3--3--3-3----------------3--3-3--3-----------------------------3--1-------------------
tú_ú. Tú_iluminaste mi vida, por eso mujer querida te canto_esta noche_azu_ul, por eso
|---------5--5-5-7--5--3--3-2---2--5-5--7-5----5-3-2--2--0---0------0---2--3---------3-2-
|--1-0-----------------------------------------------------------3-----------3----3------
|----------------------------------------------------------------------------------------
|
|
|------------------------------------------------0---------------------------------------
|-------------------0--2--2-3-------------0----2---3--3--1---1---0--1--------0----0--3-1-
|--3-1----3--3-3-3--------------3--3-3--3-------------------------------3--1-------------
vengo_a robarte, un rayito de tu luz.
|--5---2---------------3-2----2--5--3-----
|----------3-1--0--3-------3--------------
|-----------------------------------------
|
|
|-----------------------------------------
|--1---1---0-------0---3-1----------0-----
|------------3--1----------3--0--3--------

 

Tags: , , , , , , , ,

Comments are closed.

Volver a Cancionero