Volver a Cancionero



Chacarera del Acido Lisergico (Acorde guitarra) (Letra Musica)Tuna (Tab)


 

Chacarera del Acido Lisergico

Autor: Les Luthiers

Interpretan: Les Luthiers (Album Sonamos pese a todo)

Tuna España (Don Dudo)     www.TunaEspana.com    www.TunaEspaña.es

Argentina

 

   Ebm                     Bb7       Ebm
1|--2--1--2--4--6-6---7--6--4-4--2--4--6--
2|--4--3--4--6--7-7---9--7--6-6--4--6--7--
3|----------------------------------------
4|----------------------------------------
5|----------------------------------------
6|----------------------------------------

                            Bb7       Ebm Bb7 Ebm Bb7 Ebm
1|--2--1--2--4--6-6---7--6--4-4--2--1---------------------
2|--4--3--4--6--7-7---9--7--6-6--4--3--4------------------
3|--------------------------------------------------------
4|--------------------------------------------------------
5|--------------------------------------------------------
6|--------------------------------------------------------

 Ebm    Ab     Gb      Bb7
Ácido, ácido, ácido, ácido,
 Ebm    Ab     Gb      Bb7
ácido, ácido, ácido, ácido.
  Ebm           Ab      Gb           Bb7
Conozca el interior, conozca el interior.
  Ebm           Ab      Gb           Bb7
Conozca el interior, conozca el interior.

      Ebm                         Bb7   Ebm
Explorar el inconsciente, sin ningún temor,
                               Bb7   Eb
con espíritu valiente, sin ningún temor,
 Gb                           Bb7    Eb
   si quieren probar presten atención,
 Gb                                Bb7    Eb
   ya les vamos a contar, presten atención.

  Ab     SIb     Eb    Ab   SIb   Eb
Apronten la libreta, anoten la receta,
     Ab      SIb       Eb       Ab   SIb  Eb
porque esto no es un cuento, es un medicamento
 Gb                                Bb7   Eb
    Ya le vamos a contar, presten atención.

(Punteo de INTRO)

 Ebm    Ab     Gb      Bb7
Ácido, ácido, ácido, ácido,
 Ebm    Ab     Gb      Bb7
ácido, ácido, ácido, ácido.
      Ebm        Ab        Gb         Bb7
¡Ay, vamos a viajar! ¡Ay, vamos a viajar!
      Ebm        Ab        Gb         Bb7
¡Ay, vamos a viajar! ¡Ay, vamos a viajar!

    Ebm                    Bb7  Ebm
A vivir ensoñaciones con el ácido.
                    Bb7  Eb
Alucinaciones, con el ácido
 Gb                         Bb7  Eb
    Óigame, inhibido, con el ácido
 Gb                          Bb7  Eb
    Suelte su libido, con el ácido.

   Ab   SIb     Eb      Ab    SIb       Eb
¡Aflójense las ropas, alcemos nuestras copas,
    Ab    SIb      Eb        Ab     SIb      Eb
una nueva experiencia que nos brindó la ciencia!
 Gb                         Bb7    Eb      Eb6+
    Suelta la libido, el lisérgico.

 

Comments are closed.

Volver a Cancionero